ISO-10303-21;
HEADER;
/* Generated by software containing ST-Developer
 * from STEP Tools, Inc. (www.steptools.com) 
 */

FILE_DESCRIPTION(
/* description */ (''),
/* implementation_level */ '2;1');

FILE_NAME(
/* name */ 'hemisphere.step',
/* time_stamp */ '2025-11-27T11:12:21-05:00',
/* author */ (''),
/* organization */ (''),
/* preprocessor_version */ 'ST-DEVELOPER v20.1',
/* originating_system */ 'Autodesk Translation Framework v14.21.0.0',
/* authorisation */ '');

FILE_SCHEMA (('AUTOMOTIVE_DESIGN { 1 0 10303 214 3 1 1 }'));
ENDSEC;

DATA;
#10=MECHANICAL_DESIGN_GEOMETRIC_PRESENTATION_REPRESENTATION('',(#17),#115);
#11=ITEM_DEFINED_TRANSFORMATION($,$,#67,#75);
#12=(
REPRESENTATION_RELATIONSHIP($,$,#129,#128)
REPRESENTATION_RELATIONSHIP_WITH_TRANSFORMATION(#11)
SHAPE_REPRESENTATION_RELATIONSHIP()
);
#13=CONTEXT_DEPENDENT_SHAPE_REPRESENTATION(#12,#127);
#14=NEXT_ASSEMBLY_USAGE_OCCURRENCE('balls:1','balls:1','balls:1',#131,#132,
'balls:1');
#15=SHAPE_REPRESENTATION_RELATIONSHIP('SRR','None',#129,#16);
#16=ADVANCED_BREP_SHAPE_REPRESENTATION('',(#18),#114);
#17=STYLED_ITEM('',(#142),#18);
#18=MANIFOLD_SOLID_BREP('Body1',#53);
#19=FACE_BOUND('',#27,.T.);
#20=PLANE('',#74);
#21=FACE_OUTER_BOUND('',#24,.T.);
#22=FACE_OUTER_BOUND('',#25,.T.);
#23=FACE_OUTER_BOUND('',#26,.T.);
#24=EDGE_LOOP('',(#40,#41,#42));
#25=EDGE_LOOP('',(#43,#44,#45));
#26=EDGE_LOOP('',(#46));
#27=EDGE_LOOP('',(#47));
#28=CIRCLE('',#69,0.984251968503937);
#29=CIRCLE('',#70,0.984251968503937);
#30=CIRCLE('',#72,0.954251968503937);
#31=CIRCLE('',#73,0.954251968503937);
#32=VERTEX_POINT('',#99);
#33=VERTEX_POINT('',#101);
#34=VERTEX_POINT('',#104);
#35=VERTEX_POINT('',#106);
#36=EDGE_CURVE('',#32,#32,#28,.T.);
#37=EDGE_CURVE('',#32,#33,#29,.T.);
#38=EDGE_CURVE('',#34,#34,#30,.T.);
#39=EDGE_CURVE('',#35,#34,#31,.T.);
#40=ORIENTED_EDGE('',*,*,#36,.F.);
#41=ORIENTED_EDGE('',*,*,#37,.T.);
#42=ORIENTED_EDGE('',*,*,#37,.F.);
#43=ORIENTED_EDGE('',*,*,#38,.F.);
#44=ORIENTED_EDGE('',*,*,#39,.F.);
#45=ORIENTED_EDGE('',*,*,#39,.T.);
#46=ORIENTED_EDGE('',*,*,#36,.T.);
#47=ORIENTED_EDGE('',*,*,#38,.T.);
#48=SPHERICAL_SURFACE('',#68,0.984251968503937);
#49=SPHERICAL_SURFACE('',#71,0.954251968503937);
#50=ADVANCED_FACE('',(#21),#48,.T.);
#51=ADVANCED_FACE('',(#22),#49,.F.);
#52=ADVANCED_FACE('',(#23,#19),#20,.T.);
#53=CLOSED_SHELL('',(#50,#51,#52));
#54=DERIVED_UNIT_ELEMENT(#56,1.);
#55=DERIVED_UNIT_ELEMENT(#119,-3.);
#56=(
MASS_UNIT()
NAMED_UNIT(*)
SI_UNIT(.KILO.,.GRAM.)
);
#57=DERIVED_UNIT((#54,#55));
#58=MEASURE_REPRESENTATION_ITEM('density measure',
POSITIVE_RATIO_MEASURE(7850.),#57);
#59=PROPERTY_DEFINITION_REPRESENTATION(#64,#61);
#60=PROPERTY_DEFINITION_REPRESENTATION(#65,#62);
#61=REPRESENTATION('material name',(#63),#114);
#62=REPRESENTATION('density',(#58),#114);
#63=DESCRIPTIVE_REPRESENTATION_ITEM('Steel','Steel');
#64=PROPERTY_DEFINITION('material property','material name',#132);
#65=PROPERTY_DEFINITION('material property','density of part',#132);
#66=AXIS2_PLACEMENT_3D('',#96,#76,#77);
#67=AXIS2_PLACEMENT_3D('',#97,#78,#79);
#68=AXIS2_PLACEMENT_3D('',#98,#80,#81);
#69=AXIS2_PLACEMENT_3D('',#100,#82,#83);
#70=AXIS2_PLACEMENT_3D('',#102,#84,#85);
#71=AXIS2_PLACEMENT_3D('',#103,#86,#87);
#72=AXIS2_PLACEMENT_3D('',#105,#88,#89);
#73=AXIS2_PLACEMENT_3D('',#107,#90,#91);
#74=AXIS2_PLACEMENT_3D('',#108,#92,#93);
#75=AXIS2_PLACEMENT_3D('',#109,#94,#95);
#76=DIRECTION('axis',(0.,0.,1.));
#77=DIRECTION('refdir',(1.,0.,0.));
#78=DIRECTION('axis',(0.,0.,1.));
#79=DIRECTION('refdir',(1.,0.,0.));
#80=DIRECTION('center_axis',(0.,1.,-6.12323399573677E-17));
#81=DIRECTION('ref_axis',(0.,0.,-1.));
#82=DIRECTION('center_axis',(0.,1.,0.));
#83=DIRECTION('ref_axis',(0.,0.,-1.));
#84=DIRECTION('center_axis',(1.,0.,-1.22464679914735E-16));
#85=DIRECTION('ref_axis',(1.22464679914735E-16,0.,1.));
#86=DIRECTION('center_axis',(0.,1.,-6.12323399573677E-17));
#87=DIRECTION('ref_axis',(0.,0.,-1.));
#88=DIRECTION('center_axis',(0.,-1.,0.));
#89=DIRECTION('ref_axis',(0.,0.,-1.));
#90=DIRECTION('center_axis',(-1.,0.,1.22464679914735E-16));
#91=DIRECTION('ref_axis',(1.22464679914735E-16,0.,1.));
#92=DIRECTION('center_axis',(0.,1.,0.));
#93=DIRECTION('ref_axis',(0.,0.,1.));
#94=DIRECTION('',(0.,0.,1.));
#95=DIRECTION('',(1.,0.,0.));
#96=CARTESIAN_POINT('',(0.,0.,0.));
#97=CARTESIAN_POINT('',(0.,0.,0.));
#98=CARTESIAN_POINT('Origin',(0.,0.,0.));
#99=CARTESIAN_POINT('',(0.,0.,0.984251968503937));
#100=CARTESIAN_POINT('Origin',(0.,0.,0.));
#101=CARTESIAN_POINT('',(7.38070759183985E-33,-0.984251968503937,6.02680511391414E-17));
#102=CARTESIAN_POINT('Origin',(0.,0.,0.));
#103=CARTESIAN_POINT('Origin',(0.,0.,0.));
#104=CARTESIAN_POINT('',(1.16862161880841E-16,0.,0.954251968503937));
#105=CARTESIAN_POINT('Origin',(0.,0.,0.));
#106=CARTESIAN_POINT('',(7.15574362444057E-33,-0.954251968503937,5.84310809404204E-17));
#107=CARTESIAN_POINT('Origin',(0.,0.,0.));
#108=CARTESIAN_POINT('Origin',(0.,0.,0.));
#109=CARTESIAN_POINT('',(0.,0.,0.));
#110=UNCERTAINTY_MEASURE_WITH_UNIT(LENGTH_MEASURE(0.000393700787401575),
#117,'DISTANCE_ACCURACY_VALUE',
'Maximum model space distance between geometric entities at asserted c
onnectivities');
#111=UNCERTAINTY_MEASURE_WITH_UNIT(LENGTH_MEASURE(0.000393700787401575),
#117,'DISTANCE_ACCURACY_VALUE',
'Maximum model space distance between geometric entities at asserted c
onnectivities');
#112=UNCERTAINTY_MEASURE_WITH_UNIT(LENGTH_MEASURE(0.000393700787401575),
#117,'DISTANCE_ACCURACY_VALUE',
'Maximum model space distance between geometric entities at asserted c
onnectivities');
#113=(
GEOMETRIC_REPRESENTATION_CONTEXT(3)
GLOBAL_UNCERTAINTY_ASSIGNED_CONTEXT((#110))
GLOBAL_UNIT_ASSIGNED_CONTEXT((#117,#121,#122))
REPRESENTATION_CONTEXT('','3D')
);
#114=(
GEOMETRIC_REPRESENTATION_CONTEXT(3)
GLOBAL_UNCERTAINTY_ASSIGNED_CONTEXT((#111))
GLOBAL_UNIT_ASSIGNED_CONTEXT((#117,#121,#122))
REPRESENTATION_CONTEXT('','3D')
);
#115=(
GEOMETRIC_REPRESENTATION_CONTEXT(3)
GLOBAL_UNCERTAINTY_ASSIGNED_CONTEXT((#112))
GLOBAL_UNIT_ASSIGNED_CONTEXT((#117,#121,#122))
REPRESENTATION_CONTEXT('','3D')
);
#116=DIMENSIONAL_EXPONENTS(1.,0.,0.,0.,0.,0.,0.);
#117=(
CONVERSION_BASED_UNIT('inch',#120)
LENGTH_UNIT()
NAMED_UNIT(#116)
);
#118=(
LENGTH_UNIT()
NAMED_UNIT(*)
SI_UNIT(.MILLI.,.METRE.)
);
#119=(
LENGTH_UNIT()
NAMED_UNIT(*)
SI_UNIT($,.METRE.)
);
#120=LENGTH_MEASURE_WITH_UNIT(LENGTH_MEASURE(25.4),#118);
#121=(
NAMED_UNIT(*)
PLANE_ANGLE_UNIT()
SI_UNIT($,.RADIAN.)
);
#122=(
NAMED_UNIT(*)
SI_UNIT($,.STERADIAN.)
SOLID_ANGLE_UNIT()
);
#123=SHAPE_DEFINITION_REPRESENTATION(#125,#128);
#124=SHAPE_DEFINITION_REPRESENTATION(#126,#129);
#125=PRODUCT_DEFINITION_SHAPE('',$,#131);
#126=PRODUCT_DEFINITION_SHAPE('',$,#132);
#127=PRODUCT_DEFINITION_SHAPE($,$,#14);
#128=SHAPE_REPRESENTATION('',(#66,#75),#113);
#129=SHAPE_REPRESENTATION('',(#67),#114);
#130=PRODUCT_DEFINITION_CONTEXT('part definition',#138,'design');
#131=PRODUCT_DEFINITION('hemisphere','hemisphere v2',#133,#130);
#132=PRODUCT_DEFINITION('balls','balls',#134,#130);
#133=PRODUCT_DEFINITION_FORMATION('',$,#140);
#134=PRODUCT_DEFINITION_FORMATION('',$,#141);
#135=PRODUCT_RELATED_PRODUCT_CATEGORY('hemisphere v2','hemisphere v2',(#140));
#136=PRODUCT_RELATED_PRODUCT_CATEGORY('balls','balls',(#141));
#137=APPLICATION_PROTOCOL_DEFINITION('international standard',
'automotive_design',2009,#138);
#138=APPLICATION_CONTEXT(
'Core Data for Automotive Mechanical Design Process');
#139=PRODUCT_CONTEXT('part definition',#138,'mechanical');
#140=PRODUCT('hemisphere','hemisphere v2',$,(#139));
#141=PRODUCT('balls','balls',$,(#139));
#142=PRESENTATION_STYLE_ASSIGNMENT((#143));
#143=SURFACE_STYLE_USAGE(.BOTH.,#144);
#144=SURFACE_SIDE_STYLE('',(#145));
#145=SURFACE_STYLE_FILL_AREA(#146);
#146=FILL_AREA_STYLE('Steel - Satin',(#147));
#147=FILL_AREA_STYLE_COLOUR('Steel - Satin',#148);
#148=COLOUR_RGB('Steel - Satin',0.627450980392157,0.627450980392157,0.627450980392157);
ENDSEC;
END-ISO-10303-21;
