ISO-10303-21;
HEADER;
/* Generated by software containing ST-Developer
 * from STEP Tools, Inc. (www.steptools.com) 
 */
/* OPTION: using custom renumber hook */

FILE_DESCRIPTION(
/* description */ ('STEP AP242',
'CAx-IF Rec.Pracs.---Representation and Presentation of Product Manufa
cturing Information (PMI)---4.0---2014-10-13',
'CAx-IF Rec.Pracs.---3D Tessellated Geometry---0.4---2014-09-14','2;1',
'CAx-IF Rec.Pracs.---User Defined Attributes---1.5---2016-08-15'),
/* implementation_level */ '2;1');

FILE_NAME(
/* name */ '690b9a9a6b2500213c3f8c08',
/* time_stamp */ '2025-11-05T18:42:34Z',
/* author */ (''),
/* organization */ (''),
/* preprocessor_version */ 'ST-DEVELOPER v20',
/* originating_system */ 'ONSHAPE BY PTC INC, 1.206',
/* authorisation */ '  ');

FILE_SCHEMA (('AP242_MANAGED_MODEL_BASED_3D_ENGINEERING_MIM_LF { 1 0 10303 442 1 1 4 }'));
ENDSEC;

DATA;
#10=SHAPE_REPRESENTATION_RELATIONSHIP('','',#451,#11);
#11=ADVANCED_BREP_SHAPE_REPRESENTATION('',(#449),#705);
#12=ORIENTED_EDGE('',*,*,#132,.F.);
#13=ORIENTED_EDGE('',*,*,#133,.F.);
#14=ORIENTED_EDGE('',*,*,#134,.T.);
#15=ORIENTED_EDGE('',*,*,#135,.T.);
#16=ORIENTED_EDGE('',*,*,#136,.F.);
#17=ORIENTED_EDGE('',*,*,#137,.F.);
#18=ORIENTED_EDGE('',*,*,#138,.T.);
#19=ORIENTED_EDGE('',*,*,#133,.T.);
#20=ORIENTED_EDGE('',*,*,#139,.T.);
#21=ORIENTED_EDGE('',*,*,#140,.F.);
#22=ORIENTED_EDGE('',*,*,#141,.F.);
#23=ORIENTED_EDGE('',*,*,#137,.T.);
#24=ORIENTED_EDGE('',*,*,#142,.T.);
#25=ORIENTED_EDGE('',*,*,#143,.F.);
#26=ORIENTED_EDGE('',*,*,#144,.F.);
#27=ORIENTED_EDGE('',*,*,#140,.T.);
#28=ORIENTED_EDGE('',*,*,#145,.F.);
#29=ORIENTED_EDGE('',*,*,#146,.F.);
#30=ORIENTED_EDGE('',*,*,#147,.T.);
#31=ORIENTED_EDGE('',*,*,#143,.T.);
#32=ORIENTED_EDGE('',*,*,#148,.F.);
#33=ORIENTED_EDGE('',*,*,#149,.F.);
#34=ORIENTED_EDGE('',*,*,#150,.T.);
#35=ORIENTED_EDGE('',*,*,#146,.T.);
#36=ORIENTED_EDGE('',*,*,#151,.T.);
#37=ORIENTED_EDGE('',*,*,#152,.F.);
#38=ORIENTED_EDGE('',*,*,#153,.F.);
#39=ORIENTED_EDGE('',*,*,#149,.T.);
#40=ORIENTED_EDGE('',*,*,#154,.T.);
#41=ORIENTED_EDGE('',*,*,#155,.F.);
#42=ORIENTED_EDGE('',*,*,#156,.F.);
#43=ORIENTED_EDGE('',*,*,#152,.T.);
#44=ORIENTED_EDGE('',*,*,#157,.T.);
#45=ORIENTED_EDGE('',*,*,#158,.F.);
#46=ORIENTED_EDGE('',*,*,#159,.F.);
#47=ORIENTED_EDGE('',*,*,#155,.T.);
#48=ORIENTED_EDGE('',*,*,#160,.T.);
#49=ORIENTED_EDGE('',*,*,#161,.F.);
#50=ORIENTED_EDGE('',*,*,#162,.F.);
#51=ORIENTED_EDGE('',*,*,#158,.T.);
#52=ORIENTED_EDGE('',*,*,#163,.F.);
#53=ORIENTED_EDGE('',*,*,#164,.F.);
#54=ORIENTED_EDGE('',*,*,#165,.T.);
#55=ORIENTED_EDGE('',*,*,#161,.T.);
#56=ORIENTED_EDGE('',*,*,#166,.T.);
#57=ORIENTED_EDGE('',*,*,#167,.F.);
#58=ORIENTED_EDGE('',*,*,#168,.F.);
#59=ORIENTED_EDGE('',*,*,#164,.T.);
#60=ORIENTED_EDGE('',*,*,#169,.F.);
#61=ORIENTED_EDGE('',*,*,#170,.F.);
#62=ORIENTED_EDGE('',*,*,#171,.T.);
#63=ORIENTED_EDGE('',*,*,#167,.T.);
#64=ORIENTED_EDGE('',*,*,#172,.T.);
#65=ORIENTED_EDGE('',*,*,#173,.F.);
#66=ORIENTED_EDGE('',*,*,#174,.F.);
#67=ORIENTED_EDGE('',*,*,#170,.T.);
#68=ORIENTED_EDGE('',*,*,#175,.T.);
#69=ORIENTED_EDGE('',*,*,#176,.F.);
#70=ORIENTED_EDGE('',*,*,#177,.F.);
#71=ORIENTED_EDGE('',*,*,#173,.T.);
#72=ORIENTED_EDGE('',*,*,#178,.F.);
#73=ORIENTED_EDGE('',*,*,#179,.F.);
#74=ORIENTED_EDGE('',*,*,#180,.T.);
#75=ORIENTED_EDGE('',*,*,#176,.T.);
#76=ORIENTED_EDGE('',*,*,#181,.F.);
#77=ORIENTED_EDGE('',*,*,#182,.F.);
#78=ORIENTED_EDGE('',*,*,#183,.T.);
#79=ORIENTED_EDGE('',*,*,#179,.T.);
#80=ORIENTED_EDGE('',*,*,#184,.F.);
#81=ORIENTED_EDGE('',*,*,#185,.F.);
#82=ORIENTED_EDGE('',*,*,#186,.T.);
#83=ORIENTED_EDGE('',*,*,#182,.T.);
#84=ORIENTED_EDGE('',*,*,#187,.T.);
#85=ORIENTED_EDGE('',*,*,#188,.F.);
#86=ORIENTED_EDGE('',*,*,#189,.F.);
#87=ORIENTED_EDGE('',*,*,#185,.T.);
#88=ORIENTED_EDGE('',*,*,#190,.F.);
#89=ORIENTED_EDGE('',*,*,#135,.F.);
#90=ORIENTED_EDGE('',*,*,#191,.T.);
#91=ORIENTED_EDGE('',*,*,#188,.T.);
#92=ORIENTED_EDGE('',*,*,#134,.F.);
#93=ORIENTED_EDGE('',*,*,#138,.F.);
#94=ORIENTED_EDGE('',*,*,#141,.T.);
#95=ORIENTED_EDGE('',*,*,#144,.T.);
#96=ORIENTED_EDGE('',*,*,#147,.F.);
#97=ORIENTED_EDGE('',*,*,#150,.F.);
#98=ORIENTED_EDGE('',*,*,#153,.T.);
#99=ORIENTED_EDGE('',*,*,#156,.T.);
#100=ORIENTED_EDGE('',*,*,#159,.T.);
#101=ORIENTED_EDGE('',*,*,#162,.T.);
#102=ORIENTED_EDGE('',*,*,#165,.F.);
#103=ORIENTED_EDGE('',*,*,#168,.T.);
#104=ORIENTED_EDGE('',*,*,#171,.F.);
#105=ORIENTED_EDGE('',*,*,#174,.T.);
#106=ORIENTED_EDGE('',*,*,#177,.T.);
#107=ORIENTED_EDGE('',*,*,#180,.F.);
#108=ORIENTED_EDGE('',*,*,#183,.F.);
#109=ORIENTED_EDGE('',*,*,#186,.F.);
#110=ORIENTED_EDGE('',*,*,#189,.T.);
#111=ORIENTED_EDGE('',*,*,#191,.F.);
#112=ORIENTED_EDGE('',*,*,#132,.T.);
#113=ORIENTED_EDGE('',*,*,#190,.T.);
#114=ORIENTED_EDGE('',*,*,#187,.F.);
#115=ORIENTED_EDGE('',*,*,#184,.T.);
#116=ORIENTED_EDGE('',*,*,#181,.T.);
#117=ORIENTED_EDGE('',*,*,#178,.T.);
#118=ORIENTED_EDGE('',*,*,#175,.F.);
#119=ORIENTED_EDGE('',*,*,#172,.F.);
#120=ORIENTED_EDGE('',*,*,#169,.T.);
#121=ORIENTED_EDGE('',*,*,#166,.F.);
#122=ORIENTED_EDGE('',*,*,#163,.T.);
#123=ORIENTED_EDGE('',*,*,#160,.F.);
#124=ORIENTED_EDGE('',*,*,#157,.F.);
#125=ORIENTED_EDGE('',*,*,#154,.F.);
#126=ORIENTED_EDGE('',*,*,#151,.F.);
#127=ORIENTED_EDGE('',*,*,#148,.T.);
#128=ORIENTED_EDGE('',*,*,#145,.T.);
#129=ORIENTED_EDGE('',*,*,#142,.F.);
#130=ORIENTED_EDGE('',*,*,#139,.F.);
#131=ORIENTED_EDGE('',*,*,#136,.T.);
#132=EDGE_CURVE('',#192,#193,#232,.T.);
#133=EDGE_CURVE('',#194,#192,#233,.T.);
#134=EDGE_CURVE('',#194,#195,#234,.T.);
#135=EDGE_CURVE('',#195,#193,#235,.T.);
#136=EDGE_CURVE('',#196,#192,#236,.T.);
#137=EDGE_CURVE('',#197,#196,#237,.T.);
#138=EDGE_CURVE('',#197,#194,#238,.T.);
#139=EDGE_CURVE('',#196,#198,#239,.T.);
#140=EDGE_CURVE('',#199,#198,#240,.T.);
#141=EDGE_CURVE('',#197,#199,#241,.T.);
#142=EDGE_CURVE('',#198,#200,#242,.T.);
#143=EDGE_CURVE('',#201,#200,#243,.T.);
#144=EDGE_CURVE('',#199,#201,#244,.T.);
#145=EDGE_CURVE('',#202,#200,#245,.T.);
#146=EDGE_CURVE('',#203,#202,#246,.T.);
#147=EDGE_CURVE('',#203,#201,#247,.T.);
#148=EDGE_CURVE('',#204,#202,#248,.T.);
#149=EDGE_CURVE('',#205,#204,#249,.T.);
#150=EDGE_CURVE('',#205,#203,#250,.T.);
#151=EDGE_CURVE('',#204,#206,#251,.T.);
#152=EDGE_CURVE('',#207,#206,#252,.T.);
#153=EDGE_CURVE('',#205,#207,#253,.T.);
#154=EDGE_CURVE('',#206,#208,#254,.T.);
#155=EDGE_CURVE('',#209,#208,#255,.T.);
#156=EDGE_CURVE('',#207,#209,#256,.T.);
#157=EDGE_CURVE('',#208,#210,#257,.T.);
#158=EDGE_CURVE('',#211,#210,#258,.T.);
#159=EDGE_CURVE('',#209,#211,#259,.T.);
#160=EDGE_CURVE('',#210,#212,#260,.T.);
#161=EDGE_CURVE('',#213,#212,#261,.T.);
#162=EDGE_CURVE('',#211,#213,#262,.T.);
#163=EDGE_CURVE('',#214,#212,#263,.T.);
#164=EDGE_CURVE('',#215,#214,#264,.T.);
#165=EDGE_CURVE('',#215,#213,#265,.T.);
#166=EDGE_CURVE('',#214,#216,#266,.T.);
#167=EDGE_CURVE('',#217,#216,#267,.T.);
#168=EDGE_CURVE('',#215,#217,#268,.T.);
#169=EDGE_CURVE('',#218,#216,#269,.T.);
#170=EDGE_CURVE('',#219,#218,#270,.T.);
#171=EDGE_CURVE('',#219,#217,#271,.T.);
#172=EDGE_CURVE('',#218,#220,#272,.T.);
#173=EDGE_CURVE('',#221,#220,#273,.T.);
#174=EDGE_CURVE('',#219,#221,#274,.T.);
#175=EDGE_CURVE('',#220,#222,#275,.T.);
#176=EDGE_CURVE('',#223,#222,#276,.T.);
#177=EDGE_CURVE('',#221,#223,#277,.T.);
#178=EDGE_CURVE('',#224,#222,#278,.T.);
#179=EDGE_CURVE('',#225,#224,#279,.T.);
#180=EDGE_CURVE('',#225,#223,#280,.T.);
#181=EDGE_CURVE('',#226,#224,#281,.T.);
#182=EDGE_CURVE('',#227,#226,#282,.T.);
#183=EDGE_CURVE('',#227,#225,#283,.T.);
#184=EDGE_CURVE('',#228,#226,#284,.T.);
#185=EDGE_CURVE('',#229,#228,#285,.T.);
#186=EDGE_CURVE('',#229,#227,#286,.T.);
#187=EDGE_CURVE('',#228,#230,#287,.T.);
#188=EDGE_CURVE('',#231,#230,#288,.T.);
#189=EDGE_CURVE('',#229,#231,#289,.T.);
#190=EDGE_CURVE('',#193,#230,#290,.T.);
#191=EDGE_CURVE('',#195,#231,#291,.T.);
#192=VERTEX_POINT('',#584);
#193=VERTEX_POINT('',#585);
#194=VERTEX_POINT('',#587);
#195=VERTEX_POINT('',#589);
#196=VERTEX_POINT('',#593);
#197=VERTEX_POINT('',#595);
#198=VERTEX_POINT('',#599);
#199=VERTEX_POINT('',#601);
#200=VERTEX_POINT('',#605);
#201=VERTEX_POINT('',#607);
#202=VERTEX_POINT('',#611);
#203=VERTEX_POINT('',#613);
#204=VERTEX_POINT('',#617);
#205=VERTEX_POINT('',#619);
#206=VERTEX_POINT('',#623);
#207=VERTEX_POINT('',#625);
#208=VERTEX_POINT('',#629);
#209=VERTEX_POINT('',#631);
#210=VERTEX_POINT('',#635);
#211=VERTEX_POINT('',#637);
#212=VERTEX_POINT('',#641);
#213=VERTEX_POINT('',#643);
#214=VERTEX_POINT('',#647);
#215=VERTEX_POINT('',#649);
#216=VERTEX_POINT('',#653);
#217=VERTEX_POINT('',#655);
#218=VERTEX_POINT('',#659);
#219=VERTEX_POINT('',#661);
#220=VERTEX_POINT('',#665);
#221=VERTEX_POINT('',#667);
#222=VERTEX_POINT('',#671);
#223=VERTEX_POINT('',#673);
#224=VERTEX_POINT('',#677);
#225=VERTEX_POINT('',#679);
#226=VERTEX_POINT('',#683);
#227=VERTEX_POINT('',#685);
#228=VERTEX_POINT('',#689);
#229=VERTEX_POINT('',#691);
#230=VERTEX_POINT('',#695);
#231=VERTEX_POINT('',#697);
#232=LINE('',#583,#292);
#233=LINE('',#586,#293);
#234=LINE('',#588,#294);
#235=LINE('',#590,#295);
#236=LINE('',#592,#296);
#237=LINE('',#594,#297);
#238=LINE('',#596,#298);
#239=LINE('',#598,#299);
#240=LINE('',#600,#300);
#241=LINE('',#602,#301);
#242=LINE('',#604,#302);
#243=LINE('',#606,#303);
#244=LINE('',#608,#304);
#245=LINE('',#610,#305);
#246=LINE('',#612,#306);
#247=LINE('',#614,#307);
#248=LINE('',#616,#308);
#249=LINE('',#618,#309);
#250=LINE('',#620,#310);
#251=LINE('',#622,#311);
#252=LINE('',#624,#312);
#253=LINE('',#626,#313);
#254=LINE('',#628,#314);
#255=LINE('',#630,#315);
#256=LINE('',#632,#316);
#257=LINE('',#634,#317);
#258=LINE('',#636,#318);
#259=LINE('',#638,#319);
#260=LINE('',#640,#320);
#261=LINE('',#642,#321);
#262=LINE('',#644,#322);
#263=LINE('',#646,#323);
#264=LINE('',#648,#324);
#265=LINE('',#650,#325);
#266=LINE('',#652,#326);
#267=LINE('',#654,#327);
#268=LINE('',#656,#328);
#269=LINE('',#658,#329);
#270=LINE('',#660,#330);
#271=LINE('',#662,#331);
#272=LINE('',#664,#332);
#273=LINE('',#666,#333);
#274=LINE('',#668,#334);
#275=LINE('',#670,#335);
#276=LINE('',#672,#336);
#277=LINE('',#674,#337);
#278=LINE('',#676,#338);
#279=LINE('',#678,#339);
#280=LINE('',#680,#340);
#281=LINE('',#682,#341);
#282=LINE('',#684,#342);
#283=LINE('',#686,#343);
#284=LINE('',#688,#344);
#285=LINE('',#690,#345);
#286=LINE('',#692,#346);
#287=LINE('',#694,#347);
#288=LINE('',#696,#348);
#289=LINE('',#698,#349);
#290=LINE('',#700,#350);
#291=LINE('',#701,#351);
#292=VECTOR('',#479,1.);
#293=VECTOR('',#480,1.);
#294=VECTOR('',#481,1.);
#295=VECTOR('',#482,1.);
#296=VECTOR('',#485,1.);
#297=VECTOR('',#486,1.);
#298=VECTOR('',#487,1.);
#299=VECTOR('',#490,1.);
#300=VECTOR('',#491,1.);
#301=VECTOR('',#492,1.);
#302=VECTOR('',#495,1.);
#303=VECTOR('',#496,1.);
#304=VECTOR('',#497,1.);
#305=VECTOR('',#500,1.);
#306=VECTOR('',#501,1.);
#307=VECTOR('',#502,1.);
#308=VECTOR('',#505,1.);
#309=VECTOR('',#506,1.);
#310=VECTOR('',#507,1.);
#311=VECTOR('',#510,1.);
#312=VECTOR('',#511,1.);
#313=VECTOR('',#512,1.);
#314=VECTOR('',#515,1.);
#315=VECTOR('',#516,1.);
#316=VECTOR('',#517,1.);
#317=VECTOR('',#520,1.);
#318=VECTOR('',#521,1.);
#319=VECTOR('',#522,1.);
#320=VECTOR('',#525,1.);
#321=VECTOR('',#526,1.);
#322=VECTOR('',#527,1.);
#323=VECTOR('',#530,1.);
#324=VECTOR('',#531,1.);
#325=VECTOR('',#532,1.);
#326=VECTOR('',#535,1.);
#327=VECTOR('',#536,1.);
#328=VECTOR('',#537,1.);
#329=VECTOR('',#540,1.);
#330=VECTOR('',#541,1.);
#331=VECTOR('',#542,1.);
#332=VECTOR('',#545,1.);
#333=VECTOR('',#546,1.);
#334=VECTOR('',#547,1.);
#335=VECTOR('',#550,1.);
#336=VECTOR('',#551,1.);
#337=VECTOR('',#552,1.);
#338=VECTOR('',#555,1.);
#339=VECTOR('',#556,1.);
#340=VECTOR('',#557,1.);
#341=VECTOR('',#560,1.);
#342=VECTOR('',#561,1.);
#343=VECTOR('',#562,1.);
#344=VECTOR('',#565,1.);
#345=VECTOR('',#566,1.);
#346=VECTOR('',#567,1.);
#347=VECTOR('',#570,1.);
#348=VECTOR('',#571,1.);
#349=VECTOR('',#572,1.);
#350=VECTOR('',#575,1.);
#351=VECTOR('',#576,1.);
#352=EDGE_LOOP('',(#12,#13,#14,#15));
#353=EDGE_LOOP('',(#16,#17,#18,#19));
#354=EDGE_LOOP('',(#20,#21,#22,#23));
#355=EDGE_LOOP('',(#24,#25,#26,#27));
#356=EDGE_LOOP('',(#28,#29,#30,#31));
#357=EDGE_LOOP('',(#32,#33,#34,#35));
#358=EDGE_LOOP('',(#36,#37,#38,#39));
#359=EDGE_LOOP('',(#40,#41,#42,#43));
#360=EDGE_LOOP('',(#44,#45,#46,#47));
#361=EDGE_LOOP('',(#48,#49,#50,#51));
#362=EDGE_LOOP('',(#52,#53,#54,#55));
#363=EDGE_LOOP('',(#56,#57,#58,#59));
#364=EDGE_LOOP('',(#60,#61,#62,#63));
#365=EDGE_LOOP('',(#64,#65,#66,#67));
#366=EDGE_LOOP('',(#68,#69,#70,#71));
#367=EDGE_LOOP('',(#72,#73,#74,#75));
#368=EDGE_LOOP('',(#76,#77,#78,#79));
#369=EDGE_LOOP('',(#80,#81,#82,#83));
#370=EDGE_LOOP('',(#84,#85,#86,#87));
#371=EDGE_LOOP('',(#88,#89,#90,#91));
#372=EDGE_LOOP('',(#92,#93,#94,#95,#96,#97,#98,#99,#100,#101,#102,#103,
#104,#105,#106,#107,#108,#109,#110,#111));
#373=EDGE_LOOP('',(#112,#113,#114,#115,#116,#117,#118,#119,#120,#121,#122,
#123,#124,#125,#126,#127,#128,#129,#130,#131));
#374=FACE_BOUND('',#352,.T.);
#375=FACE_BOUND('',#353,.T.);
#376=FACE_BOUND('',#354,.T.);
#377=FACE_BOUND('',#355,.T.);
#378=FACE_BOUND('',#356,.T.);
#379=FACE_BOUND('',#357,.T.);
#380=FACE_BOUND('',#358,.T.);
#381=FACE_BOUND('',#359,.T.);
#382=FACE_BOUND('',#360,.T.);
#383=FACE_BOUND('',#361,.T.);
#384=FACE_BOUND('',#362,.T.);
#385=FACE_BOUND('',#363,.T.);
#386=FACE_BOUND('',#364,.T.);
#387=FACE_BOUND('',#365,.T.);
#388=FACE_BOUND('',#366,.T.);
#389=FACE_BOUND('',#367,.T.);
#390=FACE_BOUND('',#368,.T.);
#391=FACE_BOUND('',#369,.T.);
#392=FACE_BOUND('',#370,.T.);
#393=FACE_BOUND('',#371,.T.);
#394=FACE_BOUND('',#372,.T.);
#395=FACE_BOUND('',#373,.T.);
#396=PLANE('',#453);
#397=PLANE('',#454);
#398=PLANE('',#455);
#399=PLANE('',#456);
#400=PLANE('',#457);
#401=PLANE('',#458);
#402=PLANE('',#459);
#403=PLANE('',#460);
#404=PLANE('',#461);
#405=PLANE('',#462);
#406=PLANE('',#463);
#407=PLANE('',#464);
#408=PLANE('',#465);
#409=PLANE('',#466);
#410=PLANE('',#467);
#411=PLANE('',#468);
#412=PLANE('',#469);
#413=PLANE('',#470);
#414=PLANE('',#471);
#415=PLANE('',#472);
#416=PLANE('',#473);
#417=PLANE('',#474);
#418=ADVANCED_FACE('',(#374),#396,.T.);
#419=ADVANCED_FACE('',(#375),#397,.T.);
#420=ADVANCED_FACE('',(#376),#398,.F.);
#421=ADVANCED_FACE('',(#377),#399,.F.);
#422=ADVANCED_FACE('',(#378),#400,.T.);
#423=ADVANCED_FACE('',(#379),#401,.T.);
#424=ADVANCED_FACE('',(#380),#402,.F.);
#425=ADVANCED_FACE('',(#381),#403,.F.);
#426=ADVANCED_FACE('',(#382),#404,.F.);
#427=ADVANCED_FACE('',(#383),#405,.F.);
#428=ADVANCED_FACE('',(#384),#406,.T.);
#429=ADVANCED_FACE('',(#385),#407,.F.);
#430=ADVANCED_FACE('',(#386),#408,.T.);
#431=ADVANCED_FACE('',(#387),#409,.F.);
#432=ADVANCED_FACE('',(#388),#410,.F.);
#433=ADVANCED_FACE('',(#389),#411,.T.);
#434=ADVANCED_FACE('',(#390),#412,.T.);
#435=ADVANCED_FACE('',(#391),#413,.T.);
#436=ADVANCED_FACE('',(#392),#414,.F.);
#437=ADVANCED_FACE('',(#393),#415,.T.);
#438=ADVANCED_FACE('',(#394),#416,.T.);
#439=ADVANCED_FACE('',(#395),#417,.F.);
#440=CLOSED_SHELL('',(#418,#419,#420,#421,#422,#423,#424,#425,#426,#427,
#428,#429,#430,#431,#432,#433,#434,#435,#436,#437,#438,#439));
#441=STYLED_ITEM('',(#442),#449);
#442=PRESENTATION_STYLE_ASSIGNMENT((#443));
#443=SURFACE_STYLE_USAGE(.BOTH.,#444);
#444=SURFACE_SIDE_STYLE('',(#445));
#445=SURFACE_STYLE_FILL_AREA(#446);
#446=FILL_AREA_STYLE('',(#447));
#447=FILL_AREA_STYLE_COLOUR('',#448);
#448=COLOUR_RGB('',0.615686274509804,0.811764705882353,0.929411764705882);
#449=MANIFOLD_SOLID_BREP('Part 1',#440);
#450=SHAPE_DEFINITION_REPRESENTATION(#710,#451);
#451=SHAPE_REPRESENTATION('Part 1',(#452),#705);
#452=AXIS2_PLACEMENT_3D('',#581,#475,#476);
#453=AXIS2_PLACEMENT_3D('',#582,#477,#478);
#454=AXIS2_PLACEMENT_3D('',#591,#483,#484);
#455=AXIS2_PLACEMENT_3D('',#597,#488,#489);
#456=AXIS2_PLACEMENT_3D('',#603,#493,#494);
#457=AXIS2_PLACEMENT_3D('',#609,#498,#499);
#458=AXIS2_PLACEMENT_3D('',#615,#503,#504);
#459=AXIS2_PLACEMENT_3D('',#621,#508,#509);
#460=AXIS2_PLACEMENT_3D('',#627,#513,#514);
#461=AXIS2_PLACEMENT_3D('',#633,#518,#519);
#462=AXIS2_PLACEMENT_3D('',#639,#523,#524);
#463=AXIS2_PLACEMENT_3D('',#645,#528,#529);
#464=AXIS2_PLACEMENT_3D('',#651,#533,#534);
#465=AXIS2_PLACEMENT_3D('',#657,#538,#539);
#466=AXIS2_PLACEMENT_3D('',#663,#543,#544);
#467=AXIS2_PLACEMENT_3D('',#669,#548,#549);
#468=AXIS2_PLACEMENT_3D('',#675,#553,#554);
#469=AXIS2_PLACEMENT_3D('',#681,#558,#559);
#470=AXIS2_PLACEMENT_3D('',#687,#563,#564);
#471=AXIS2_PLACEMENT_3D('',#693,#568,#569);
#472=AXIS2_PLACEMENT_3D('',#699,#573,#574);
#473=AXIS2_PLACEMENT_3D('',#702,#577,#578);
#474=AXIS2_PLACEMENT_3D('',#703,#579,#580);
#475=DIRECTION('',(0.,0.,1.));
#476=DIRECTION('',(1.,0.,0.));
#477=DIRECTION('',(0.,0.,1.));
#478=DIRECTION('',(1.,0.,0.));
#479=DIRECTION('',(1.,0.,0.));
#480=DIRECTION('',(0.,1.,0.));
#481=DIRECTION('',(1.,0.,0.));
#482=DIRECTION('',(0.,1.,0.));
#483=DIRECTION('',(1.,0.,0.));
#484=DIRECTION('',(0.,0.,-1.));
#485=DIRECTION('',(0.,0.,-1.));
#486=DIRECTION('',(0.,1.,0.));
#487=DIRECTION('',(0.,0.,-1.));
#488=DIRECTION('',(0.,0.,-1.));
#489=DIRECTION('',(-1.,0.,0.));
#490=DIRECTION('',(-1.,0.,0.));
#491=DIRECTION('',(0.,1.,0.));
#492=DIRECTION('',(-1.,0.,0.));
#493=DIRECTION('',(-1.,0.,0.));
#494=DIRECTION('',(0.,0.,1.));
#495=DIRECTION('',(0.,0.,1.));
#496=DIRECTION('',(0.,1.,0.));
#497=DIRECTION('',(0.,0.,1.));
#498=DIRECTION('',(0.,0.,1.));
#499=DIRECTION('',(1.,0.,0.));
#500=DIRECTION('',(1.,0.,0.));
#501=DIRECTION('',(0.,1.,0.));
#502=DIRECTION('',(1.,0.,0.));
#503=DIRECTION('',(-1.,0.,0.));
#504=DIRECTION('',(0.,0.,1.));
#505=DIRECTION('',(0.,0.,1.));
#506=DIRECTION('',(0.,1.,0.));
#507=DIRECTION('',(0.,0.,1.));
#508=DIRECTION('',(0.,0.,-1.));
#509=DIRECTION('',(-1.,0.,0.));
#510=DIRECTION('',(-1.,0.,0.));
#511=DIRECTION('',(0.,1.,0.));
#512=DIRECTION('',(-1.,0.,0.));
#513=DIRECTION('',(1.,0.,0.));
#514=DIRECTION('',(0.,0.,-1.));
#515=DIRECTION('',(0.,0.,-1.));
#516=DIRECTION('',(0.,1.,0.));
#517=DIRECTION('',(0.,0.,-1.));
#518=DIRECTION('',(0.,0.,-1.));
#519=DIRECTION('',(-1.,0.,0.));
#520=DIRECTION('',(-1.,0.,0.));
#521=DIRECTION('',(0.,1.,0.));
#522=DIRECTION('',(-1.,0.,0.));
#523=DIRECTION('',(1.,0.,0.));
#524=DIRECTION('',(0.,0.,-1.));
#525=DIRECTION('',(0.,0.,-1.));
#526=DIRECTION('',(0.,1.,0.));
#527=DIRECTION('',(0.,0.,-1.));
#528=DIRECTION('',(0.,0.,-1.));
#529=DIRECTION('',(-1.,0.,0.));
#530=DIRECTION('',(-1.,0.,0.));
#531=DIRECTION('',(0.,1.,0.));
#532=DIRECTION('',(-1.,0.,0.));
#533=DIRECTION('',(1.,0.,0.));
#534=DIRECTION('',(0.,0.,-1.));
#535=DIRECTION('',(0.,0.,-1.));
#536=DIRECTION('',(0.,1.,0.));
#537=DIRECTION('',(0.,0.,-1.));
#538=DIRECTION('',(0.,0.,-1.));
#539=DIRECTION('',(-1.,0.,0.));
#540=DIRECTION('',(-1.,0.,0.));
#541=DIRECTION('',(0.,1.,0.));
#542=DIRECTION('',(-1.,0.,0.));
#543=DIRECTION('',(1.,0.,0.));
#544=DIRECTION('',(0.,0.,-1.));
#545=DIRECTION('',(0.,0.,-1.));
#546=DIRECTION('',(0.,1.,0.));
#547=DIRECTION('',(0.,0.,-1.));
#548=DIRECTION('',(0.,0.,1.));
#549=DIRECTION('',(1.,0.,0.));
#550=DIRECTION('',(1.,0.,0.));
#551=DIRECTION('',(0.,1.,0.));
#552=DIRECTION('',(1.,0.,0.));
#553=DIRECTION('',(1.,0.,0.));
#554=DIRECTION('',(0.,0.,-1.));
#555=DIRECTION('',(0.,0.,-1.));
#556=DIRECTION('',(0.,1.,0.));
#557=DIRECTION('',(0.,0.,-1.));
#558=DIRECTION('',(0.,0.,-1.));
#559=DIRECTION('',(-1.,0.,0.));
#560=DIRECTION('',(-1.,0.,0.));
#561=DIRECTION('',(0.,1.,0.));
#562=DIRECTION('',(-1.,0.,0.));
#563=DIRECTION('',(1.,0.,0.));
#564=DIRECTION('',(0.,0.,-1.));
#565=DIRECTION('',(0.,0.,-1.));
#566=DIRECTION('',(0.,1.,0.));
#567=DIRECTION('',(0.,0.,-1.));
#568=DIRECTION('',(0.,0.,1.));
#569=DIRECTION('',(1.,0.,0.));
#570=DIRECTION('',(1.,0.,0.));
#571=DIRECTION('',(0.,1.,0.));
#572=DIRECTION('',(1.,0.,0.));
#573=DIRECTION('',(1.,0.,0.));
#574=DIRECTION('',(0.,0.,-1.));
#575=DIRECTION('',(0.,0.,-1.));
#576=DIRECTION('',(0.,0.,-1.));
#577=DIRECTION('',(0.,-1.,0.));
#578=DIRECTION('',(1.,0.,0.));
#579=DIRECTION('',(0.,-1.,0.));
#580=DIRECTION('',(1.,0.,0.));
#581=CARTESIAN_POINT('',(0.,0.,0.));
#582=CARTESIAN_POINT('',(0.04445,-0.0254,0.01905));
#583=CARTESIAN_POINT('',(0.04445,0.,0.01905));
#584=CARTESIAN_POINT('',(0.0381,0.,0.01905));
#585=CARTESIAN_POINT('',(0.0508,0.,0.01905));
#586=CARTESIAN_POINT('',(0.0381,-0.0254,0.01905));
#587=CARTESIAN_POINT('',(0.0381,-0.0254,0.01905));
#588=CARTESIAN_POINT('',(0.04445,-0.0254,0.01905));
#589=CARTESIAN_POINT('',(0.0508,-0.0254,0.01905));
#590=CARTESIAN_POINT('',(0.0508,-0.0254,0.01905));
#591=CARTESIAN_POINT('',(0.0381,-0.0254,0.028575));
#592=CARTESIAN_POINT('',(0.0381,0.,0.028575));
#593=CARTESIAN_POINT('',(0.0381,0.,0.0381));
#594=CARTESIAN_POINT('',(0.0381,-0.0254,0.0381));
#595=CARTESIAN_POINT('',(0.0381,-0.0254,0.0381));
#596=CARTESIAN_POINT('',(0.0381,-0.0254,0.028575));
#597=CARTESIAN_POINT('',(0.028575,-0.0254,0.0381));
#598=CARTESIAN_POINT('',(0.028575,0.,0.0381));
#599=CARTESIAN_POINT('',(0.01905,0.,0.0381));
#600=CARTESIAN_POINT('',(0.01905,-0.0254,0.0381));
#601=CARTESIAN_POINT('',(0.01905,-0.0254,0.0381));
#602=CARTESIAN_POINT('',(0.028575,-0.0254,0.0381));
#603=CARTESIAN_POINT('',(0.01905,-0.0254,0.04445));
#604=CARTESIAN_POINT('',(0.01905,0.,0.04445));
#605=CARTESIAN_POINT('',(0.01905,0.,0.0508));
#606=CARTESIAN_POINT('',(0.01905,-0.0254,0.0508));
#607=CARTESIAN_POINT('',(0.01905,-0.0254,0.0508));
#608=CARTESIAN_POINT('',(0.01905,-0.0254,0.04445));
#609=CARTESIAN_POINT('',(-6.93889390390723E-18,-0.0254,0.0508));
#610=CARTESIAN_POINT('',(-6.93889390390723E-18,0.,0.0508));
#611=CARTESIAN_POINT('',(-0.01905,0.,0.0508));
#612=CARTESIAN_POINT('',(-0.01905,-0.0254,0.0508));
#613=CARTESIAN_POINT('',(-0.01905,-0.0254,0.0508));
#614=CARTESIAN_POINT('',(-6.93889390390723E-18,-0.0254,0.0508));
#615=CARTESIAN_POINT('',(-0.01905,-0.0254,0.04445));
#616=CARTESIAN_POINT('',(-0.01905,0.,0.04445));
#617=CARTESIAN_POINT('',(-0.01905,0.,0.0381));
#618=CARTESIAN_POINT('',(-0.01905,-0.0254,0.0381));
#619=CARTESIAN_POINT('',(-0.01905,-0.0254,0.0381));
#620=CARTESIAN_POINT('',(-0.01905,-0.0254,0.04445));
#621=CARTESIAN_POINT('',(-0.028575,-0.0254,0.0381));
#622=CARTESIAN_POINT('',(-0.028575,0.,0.0381));
#623=CARTESIAN_POINT('',(-0.0381,0.,0.0381));
#624=CARTESIAN_POINT('',(-0.0381,-0.0254,0.0381));
#625=CARTESIAN_POINT('',(-0.0381,-0.0254,0.0381));
#626=CARTESIAN_POINT('',(-0.028575,-0.0254,0.0381));
#627=CARTESIAN_POINT('',(-0.0381,-0.0254,0.028575));
#628=CARTESIAN_POINT('',(-0.0381,0.,0.028575));
#629=CARTESIAN_POINT('',(-0.0381,0.,0.01905));
#630=CARTESIAN_POINT('',(-0.0381,-0.0254,0.01905));
#631=CARTESIAN_POINT('',(-0.0381,-0.0254,0.01905));
#632=CARTESIAN_POINT('',(-0.0381,-0.0254,0.028575));
#633=CARTESIAN_POINT('',(-0.04445,-0.0254,0.01905));
#634=CARTESIAN_POINT('',(-0.04445,0.,0.01905));
#635=CARTESIAN_POINT('',(-0.0508,0.,0.01905));
#636=CARTESIAN_POINT('',(-0.0508,-0.0254,0.01905));
#637=CARTESIAN_POINT('',(-0.0508,-0.0254,0.01905));
#638=CARTESIAN_POINT('',(-0.04445,-0.0254,0.01905));
#639=CARTESIAN_POINT('',(-0.0508,-0.0254,0.));
#640=CARTESIAN_POINT('',(-0.0508,0.,0.));
#641=CARTESIAN_POINT('',(-0.0508,0.,-0.01905));
#642=CARTESIAN_POINT('',(-0.0508,-0.0254,-0.01905));
#643=CARTESIAN_POINT('',(-0.0508,-0.0254,-0.01905));
#644=CARTESIAN_POINT('',(-0.0508,-0.0254,0.));
#645=CARTESIAN_POINT('',(-0.04445,-0.0254,-0.01905));
#646=CARTESIAN_POINT('',(-0.04445,0.,-0.01905));
#647=CARTESIAN_POINT('',(-0.0381,0.,-0.01905));
#648=CARTESIAN_POINT('',(-0.0381,-0.0254,-0.01905));
#649=CARTESIAN_POINT('',(-0.0381,-0.0254,-0.01905));
#650=CARTESIAN_POINT('',(-0.04445,-0.0254,-0.01905));
#651=CARTESIAN_POINT('',(-0.0381,-0.0254,-0.028575));
#652=CARTESIAN_POINT('',(-0.0381,0.,-0.028575));
#653=CARTESIAN_POINT('',(-0.0381,0.,-0.0381));
#654=CARTESIAN_POINT('',(-0.0381,-0.0254,-0.0381));
#655=CARTESIAN_POINT('',(-0.0381,-0.0254,-0.0381));
#656=CARTESIAN_POINT('',(-0.0381,-0.0254,-0.028575));
#657=CARTESIAN_POINT('',(-0.028575,-0.0254,-0.0381));
#658=CARTESIAN_POINT('',(-0.028575,0.,-0.0381));
#659=CARTESIAN_POINT('',(-0.01905,0.,-0.0381));
#660=CARTESIAN_POINT('',(-0.01905,-0.0254,-0.0381));
#661=CARTESIAN_POINT('',(-0.01905,-0.0254,-0.0381));
#662=CARTESIAN_POINT('',(-0.028575,-0.0254,-0.0381));
#663=CARTESIAN_POINT('',(-0.01905,-0.0254,-0.04445));
#664=CARTESIAN_POINT('',(-0.01905,0.,-0.04445));
#665=CARTESIAN_POINT('',(-0.01905,0.,-0.0508));
#666=CARTESIAN_POINT('',(-0.01905,-0.0254,-0.0508));
#667=CARTESIAN_POINT('',(-0.01905,-0.0254,-0.0508));
#668=CARTESIAN_POINT('',(-0.01905,-0.0254,-0.04445));
#669=CARTESIAN_POINT('',(-6.93889390390723E-18,-0.0254,-0.0508));
#670=CARTESIAN_POINT('',(-6.93889390390723E-18,0.,-0.0508));
#671=CARTESIAN_POINT('',(0.01905,0.,-0.0508));
#672=CARTESIAN_POINT('',(0.01905,-0.0254,-0.0508));
#673=CARTESIAN_POINT('',(0.01905,-0.0254,-0.0508));
#674=CARTESIAN_POINT('',(-6.93889390390723E-18,-0.0254,-0.0508));
#675=CARTESIAN_POINT('',(0.01905,-0.0254,-0.04445));
#676=CARTESIAN_POINT('',(0.01905,0.,-0.04445));
#677=CARTESIAN_POINT('',(0.01905,0.,-0.0381));
#678=CARTESIAN_POINT('',(0.01905,-0.0254,-0.0381));
#679=CARTESIAN_POINT('',(0.01905,-0.0254,-0.0381));
#680=CARTESIAN_POINT('',(0.01905,-0.0254,-0.04445));
#681=CARTESIAN_POINT('',(0.028575,-0.0254,-0.0381));
#682=CARTESIAN_POINT('',(0.028575,0.,-0.0381));
#683=CARTESIAN_POINT('',(0.0381,0.,-0.0381));
#684=CARTESIAN_POINT('',(0.0381,-0.0254,-0.0381));
#685=CARTESIAN_POINT('',(0.0381,-0.0254,-0.0381));
#686=CARTESIAN_POINT('',(0.028575,-0.0254,-0.0381));
#687=CARTESIAN_POINT('',(0.0381,-0.0254,-0.028575));
#688=CARTESIAN_POINT('',(0.0381,0.,-0.028575));
#689=CARTESIAN_POINT('',(0.0381,0.,-0.01905));
#690=CARTESIAN_POINT('',(0.0381,-0.0254,-0.01905));
#691=CARTESIAN_POINT('',(0.0381,-0.0254,-0.01905));
#692=CARTESIAN_POINT('',(0.0381,-0.0254,-0.028575));
#693=CARTESIAN_POINT('',(0.04445,-0.0254,-0.01905));
#694=CARTESIAN_POINT('',(0.04445,0.,-0.01905));
#695=CARTESIAN_POINT('',(0.0508,0.,-0.01905));
#696=CARTESIAN_POINT('',(0.0508,-0.0254,-0.01905));
#697=CARTESIAN_POINT('',(0.0508,-0.0254,-0.01905));
#698=CARTESIAN_POINT('',(0.04445,-0.0254,-0.01905));
#699=CARTESIAN_POINT('',(0.0508,-0.0254,0.));
#700=CARTESIAN_POINT('',(0.0508,0.,0.));
#701=CARTESIAN_POINT('',(0.0508,-0.0254,0.));
#702=CARTESIAN_POINT('',(0.,-0.0254,0.));
#703=CARTESIAN_POINT('',(0.,0.,0.));
#704=MECHANICAL_DESIGN_GEOMETRIC_PRESENTATION_REPRESENTATION('',(#441),
#705);
#705=(
GEOMETRIC_REPRESENTATION_CONTEXT(3)
GLOBAL_UNCERTAINTY_ASSIGNED_CONTEXT((#706))
GLOBAL_UNIT_ASSIGNED_CONTEXT((#709,#708,#707))
REPRESENTATION_CONTEXT('Part 1','TOP_LEVEL_ASSEMBLY_PART')
);
#706=UNCERTAINTY_MEASURE_WITH_UNIT(LENGTH_MEASURE(1.E-8),#709,
'DISTANCE_ACCURACY_VALUE','Maximum Tolerance applied to model');
#707=(
NAMED_UNIT(*)
SI_UNIT($,.STERADIAN.)
SOLID_ANGLE_UNIT()
);
#708=(
NAMED_UNIT(*)
PLANE_ANGLE_UNIT()
SI_UNIT($,.RADIAN.)
);
#709=(
LENGTH_UNIT()
NAMED_UNIT(*)
SI_UNIT($,.METRE.)
);
#710=PRODUCT_DEFINITION_SHAPE('','',#711);
#711=PRODUCT_DEFINITION('','',#713,#712);
#712=PRODUCT_DEFINITION_CONTEXT('',#719,'design');
#713=PRODUCT_DEFINITION_FORMATION_WITH_SPECIFIED_SOURCE('','',#715,
 .NOT_KNOWN.);
#714=PRODUCT_RELATED_PRODUCT_CATEGORY('','',(#715));
#715=PRODUCT('Part 1','Part 1','Part 1',(#717));
#716=PRODUCT_CATEGORY('','');
#717=PRODUCT_CONTEXT('',#719,'mechanical');
#718=APPLICATION_PROTOCOL_DEFINITION('international standard',
'ap242_managed_model_based_3d_engineering',2011,#719);
#719=APPLICATION_CONTEXT('managed model based 3d engineering');
ENDSEC;
END-ISO-10303-21;
