ISO-10303-21;
HEADER;
/* Generated by software containing ST-Developer
 * from STEP Tools, Inc. (www.steptools.com) 
 */

FILE_DESCRIPTION(
/* description */ (''),
/* implementation_level */ '2;1');

FILE_NAME(
/* name */ 'turn_table_scribe.step',
/* time_stamp */ '2025-09-17T08:40:57-04:00',
/* author */ (''),
/* organization */ (''),
/* preprocessor_version */ 'ST-DEVELOPER v20.1',
/* originating_system */ 'Autodesk Translation Framework v14.10.0.0',
/* authorisation */ '');

FILE_SCHEMA (('AUTOMOTIVE_DESIGN { 1 0 10303 214 3 1 1 }'));
ENDSEC;

DATA;
#10=MECHANICAL_DESIGN_GEOMETRIC_PRESENTATION_REPRESENTATION('',(#19,#20,
#21),#499);
#11=SHAPE_REPRESENTATION_RELATIONSHIP('SRR','None',#506,#12);
#12=ADVANCED_BREP_SHAPE_REPRESENTATION('',(#22,#23,#24),#498);
#13=CONICAL_SURFACE('',#335,0.5,0.112028962425987);
#14=CIRCLE('',#327,12.5);
#15=CIRCLE('',#328,12.5);
#16=CIRCLE('',#332,0.5);
#17=CIRCLE('',#334,0.05);
#18=CYLINDRICAL_SURFACE('',#326,12.5);
#19=STYLED_ITEM('',(#516),#22);
#20=STYLED_ITEM('',(#517),#23);
#21=STYLED_ITEM('',(#518),#24);
#22=MANIFOLD_SOLID_BREP('Body1',#297);
#23=MANIFOLD_SOLID_BREP('Body2',#298);
#24=MANIFOLD_SOLID_BREP('Body3',#299);
#25=FACE_BOUND('',#57,.T.);
#26=FACE_OUTER_BOUND('',#45,.T.);
#27=FACE_OUTER_BOUND('',#46,.T.);
#28=FACE_OUTER_BOUND('',#47,.T.);
#29=FACE_OUTER_BOUND('',#48,.T.);
#30=FACE_OUTER_BOUND('',#49,.T.);
#31=FACE_OUTER_BOUND('',#50,.T.);
#32=FACE_OUTER_BOUND('',#51,.T.);
#33=FACE_OUTER_BOUND('',#52,.T.);
#34=FACE_OUTER_BOUND('',#53,.T.);
#35=FACE_OUTER_BOUND('',#54,.T.);
#36=FACE_OUTER_BOUND('',#55,.T.);
#37=FACE_OUTER_BOUND('',#56,.T.);
#38=FACE_OUTER_BOUND('',#58,.T.);
#39=FACE_OUTER_BOUND('',#59,.T.);
#40=FACE_OUTER_BOUND('',#60,.T.);
#41=FACE_OUTER_BOUND('',#61,.T.);
#42=FACE_OUTER_BOUND('',#62,.T.);
#43=FACE_OUTER_BOUND('',#63,.T.);
#44=FACE_OUTER_BOUND('',#64,.T.);
#45=EDGE_LOOP('',(#189,#190,#191,#192));
#46=EDGE_LOOP('',(#193,#194,#195,#196));
#47=EDGE_LOOP('',(#197,#198,#199,#200));
#48=EDGE_LOOP('',(#201,#202,#203,#204));
#49=EDGE_LOOP('',(#205,#206,#207,#208,#209,#210));
#50=EDGE_LOOP('',(#211,#212,#213,#214,#215,#216));
#51=EDGE_LOOP('',(#217,#218,#219,#220));
#52=EDGE_LOOP('',(#221,#222,#223,#224));
#53=EDGE_LOOP('',(#225,#226,#227,#228));
#54=EDGE_LOOP('',(#229,#230,#231,#232));
#55=EDGE_LOOP('',(#233,#234,#235,#236));
#56=EDGE_LOOP('',(#237,#238,#239,#240));
#57=EDGE_LOOP('',(#241,#242,#243,#244));
#58=EDGE_LOOP('',(#245,#246,#247,#248));
#59=EDGE_LOOP('',(#249,#250,#251,#252));
#60=EDGE_LOOP('',(#253));
#61=EDGE_LOOP('',(#254));
#62=EDGE_LOOP('',(#255));
#63=EDGE_LOOP('',(#256));
#64=EDGE_LOOP('',(#257,#258,#259,#260));
#65=LINE('',#420,#97);
#66=LINE('',#422,#98);
#67=LINE('',#424,#99);
#68=LINE('',#425,#100);
#69=LINE('',#428,#101);
#70=LINE('',#430,#102);
#71=LINE('',#431,#103);
#72=LINE('',#434,#104);
#73=LINE('',#436,#105);
#74=LINE('',#437,#106);
#75=LINE('',#441,#107);
#76=LINE('',#443,#108);
#77=LINE('',#445,#109);
#78=LINE('',#446,#110);
#79=LINE('',#448,#111);
#80=LINE('',#449,#112);
#81=LINE('',#451,#113);
#82=LINE('',#452,#114);
#83=LINE('',#457,#115);
#84=LINE('',#459,#116);
#85=LINE('',#461,#117);
#86=LINE('',#462,#118);
#87=LINE('',#465,#119);
#88=LINE('',#467,#120);
#89=LINE('',#468,#121);
#90=LINE('',#471,#122);
#91=LINE('',#473,#123);
#92=LINE('',#474,#124);
#93=LINE('',#476,#125);
#94=LINE('',#477,#126);
#95=LINE('',#484,#127);
#96=LINE('',#495,#128);
#97=VECTOR('',#340,10.);
#98=VECTOR('',#341,10.);
#99=VECTOR('',#342,10.);
#100=VECTOR('',#343,10.);
#101=VECTOR('',#346,10.);
#102=VECTOR('',#347,10.);
#103=VECTOR('',#348,10.);
#104=VECTOR('',#351,10.);
#105=VECTOR('',#352,10.);
#106=VECTOR('',#353,10.);
#107=VECTOR('',#356,10.);
#108=VECTOR('',#357,10.);
#109=VECTOR('',#358,10.);
#110=VECTOR('',#359,10.);
#111=VECTOR('',#362,10.);
#112=VECTOR('',#363,10.);
#113=VECTOR('',#366,10.);
#114=VECTOR('',#367,10.);
#115=VECTOR('',#372,10.);
#116=VECTOR('',#373,10.);
#117=VECTOR('',#374,10.);
#118=VECTOR('',#375,10.);
#119=VECTOR('',#378,10.);
#120=VECTOR('',#379,10.);
#121=VECTOR('',#380,10.);
#122=VECTOR('',#383,10.);
#123=VECTOR('',#384,10.);
#124=VECTOR('',#385,10.);
#125=VECTOR('',#388,10.);
#126=VECTOR('',#389,10.);
#127=VECTOR('',#398,12.5);
#128=VECTOR('',#415,0.5);
#129=VERTEX_POINT('',#418);
#130=VERTEX_POINT('',#419);
#131=VERTEX_POINT('',#421);
#132=VERTEX_POINT('',#423);
#133=VERTEX_POINT('',#427);
#134=VERTEX_POINT('',#429);
#135=VERTEX_POINT('',#433);
#136=VERTEX_POINT('',#435);
#137=VERTEX_POINT('',#439);
#138=VERTEX_POINT('',#440);
#139=VERTEX_POINT('',#442);
#140=VERTEX_POINT('',#444);
#141=VERTEX_POINT('',#455);
#142=VERTEX_POINT('',#456);
#143=VERTEX_POINT('',#458);
#144=VERTEX_POINT('',#460);
#145=VERTEX_POINT('',#464);
#146=VERTEX_POINT('',#466);
#147=VERTEX_POINT('',#470);
#148=VERTEX_POINT('',#472);
#149=VERTEX_POINT('',#481);
#150=VERTEX_POINT('',#483);
#151=VERTEX_POINT('',#489);
#152=VERTEX_POINT('',#492);
#153=EDGE_CURVE('',#129,#130,#65,.T.);
#154=EDGE_CURVE('',#129,#131,#66,.T.);
#155=EDGE_CURVE('',#132,#131,#67,.T.);
#156=EDGE_CURVE('',#130,#132,#68,.T.);
#157=EDGE_CURVE('',#131,#133,#69,.T.);
#158=EDGE_CURVE('',#133,#134,#70,.T.);
#159=EDGE_CURVE('',#134,#132,#71,.T.);
#160=EDGE_CURVE('',#135,#130,#72,.T.);
#161=EDGE_CURVE('',#136,#135,#73,.T.);
#162=EDGE_CURVE('',#136,#129,#74,.T.);
#163=EDGE_CURVE('',#137,#138,#75,.T.);
#164=EDGE_CURVE('',#137,#139,#76,.T.);
#165=EDGE_CURVE('',#140,#139,#77,.T.);
#166=EDGE_CURVE('',#138,#140,#78,.T.);
#167=EDGE_CURVE('',#138,#136,#79,.T.);
#168=EDGE_CURVE('',#140,#133,#80,.T.);
#169=EDGE_CURVE('',#135,#137,#81,.T.);
#170=EDGE_CURVE('',#139,#134,#82,.T.);
#171=EDGE_CURVE('',#141,#142,#83,.T.);
#172=EDGE_CURVE('',#141,#143,#84,.T.);
#173=EDGE_CURVE('',#144,#143,#85,.T.);
#174=EDGE_CURVE('',#142,#144,#86,.T.);
#175=EDGE_CURVE('',#142,#145,#87,.T.);
#176=EDGE_CURVE('',#146,#144,#88,.T.);
#177=EDGE_CURVE('',#145,#146,#89,.T.);
#178=EDGE_CURVE('',#145,#147,#90,.T.);
#179=EDGE_CURVE('',#148,#146,#91,.T.);
#180=EDGE_CURVE('',#147,#148,#92,.T.);
#181=EDGE_CURVE('',#147,#141,#93,.T.);
#182=EDGE_CURVE('',#143,#148,#94,.T.);
#183=EDGE_CURVE('',#149,#149,#14,.T.);
#184=EDGE_CURVE('',#149,#150,#95,.T.);
#185=EDGE_CURVE('',#150,#150,#15,.T.);
#186=EDGE_CURVE('',#151,#151,#16,.T.);
#187=EDGE_CURVE('',#152,#152,#17,.T.);
#188=EDGE_CURVE('',#152,#151,#96,.T.);
#189=ORIENTED_EDGE('',*,*,#153,.F.);
#190=ORIENTED_EDGE('',*,*,#154,.T.);
#191=ORIENTED_EDGE('',*,*,#155,.F.);
#192=ORIENTED_EDGE('',*,*,#156,.F.);
#193=ORIENTED_EDGE('',*,*,#155,.T.);
#194=ORIENTED_EDGE('',*,*,#157,.T.);
#195=ORIENTED_EDGE('',*,*,#158,.T.);
#196=ORIENTED_EDGE('',*,*,#159,.T.);
#197=ORIENTED_EDGE('',*,*,#153,.T.);
#198=ORIENTED_EDGE('',*,*,#160,.F.);
#199=ORIENTED_EDGE('',*,*,#161,.F.);
#200=ORIENTED_EDGE('',*,*,#162,.T.);
#201=ORIENTED_EDGE('',*,*,#163,.F.);
#202=ORIENTED_EDGE('',*,*,#164,.T.);
#203=ORIENTED_EDGE('',*,*,#165,.F.);
#204=ORIENTED_EDGE('',*,*,#166,.F.);
#205=ORIENTED_EDGE('',*,*,#167,.F.);
#206=ORIENTED_EDGE('',*,*,#166,.T.);
#207=ORIENTED_EDGE('',*,*,#168,.T.);
#208=ORIENTED_EDGE('',*,*,#157,.F.);
#209=ORIENTED_EDGE('',*,*,#154,.F.);
#210=ORIENTED_EDGE('',*,*,#162,.F.);
#211=ORIENTED_EDGE('',*,*,#169,.F.);
#212=ORIENTED_EDGE('',*,*,#160,.T.);
#213=ORIENTED_EDGE('',*,*,#156,.T.);
#214=ORIENTED_EDGE('',*,*,#159,.F.);
#215=ORIENTED_EDGE('',*,*,#170,.F.);
#216=ORIENTED_EDGE('',*,*,#164,.F.);
#217=ORIENTED_EDGE('',*,*,#170,.T.);
#218=ORIENTED_EDGE('',*,*,#158,.F.);
#219=ORIENTED_EDGE('',*,*,#168,.F.);
#220=ORIENTED_EDGE('',*,*,#165,.T.);
#221=ORIENTED_EDGE('',*,*,#171,.F.);
#222=ORIENTED_EDGE('',*,*,#172,.T.);
#223=ORIENTED_EDGE('',*,*,#173,.F.);
#224=ORIENTED_EDGE('',*,*,#174,.F.);
#225=ORIENTED_EDGE('',*,*,#175,.F.);
#226=ORIENTED_EDGE('',*,*,#174,.T.);
#227=ORIENTED_EDGE('',*,*,#176,.F.);
#228=ORIENTED_EDGE('',*,*,#177,.F.);
#229=ORIENTED_EDGE('',*,*,#178,.F.);
#230=ORIENTED_EDGE('',*,*,#177,.T.);
#231=ORIENTED_EDGE('',*,*,#179,.F.);
#232=ORIENTED_EDGE('',*,*,#180,.F.);
#233=ORIENTED_EDGE('',*,*,#181,.F.);
#234=ORIENTED_EDGE('',*,*,#180,.T.);
#235=ORIENTED_EDGE('',*,*,#182,.F.);
#236=ORIENTED_EDGE('',*,*,#172,.F.);
#237=ORIENTED_EDGE('',*,*,#182,.T.);
#238=ORIENTED_EDGE('',*,*,#179,.T.);
#239=ORIENTED_EDGE('',*,*,#176,.T.);
#240=ORIENTED_EDGE('',*,*,#173,.T.);
#241=ORIENTED_EDGE('',*,*,#163,.T.);
#242=ORIENTED_EDGE('',*,*,#167,.T.);
#243=ORIENTED_EDGE('',*,*,#161,.T.);
#244=ORIENTED_EDGE('',*,*,#169,.T.);
#245=ORIENTED_EDGE('',*,*,#181,.T.);
#246=ORIENTED_EDGE('',*,*,#171,.T.);
#247=ORIENTED_EDGE('',*,*,#175,.T.);
#248=ORIENTED_EDGE('',*,*,#178,.T.);
#249=ORIENTED_EDGE('',*,*,#183,.F.);
#250=ORIENTED_EDGE('',*,*,#184,.T.);
#251=ORIENTED_EDGE('',*,*,#185,.T.);
#252=ORIENTED_EDGE('',*,*,#184,.F.);
#253=ORIENTED_EDGE('',*,*,#183,.T.);
#254=ORIENTED_EDGE('',*,*,#185,.F.);
#255=ORIENTED_EDGE('',*,*,#186,.F.);
#256=ORIENTED_EDGE('',*,*,#187,.F.);
#257=ORIENTED_EDGE('',*,*,#187,.T.);
#258=ORIENTED_EDGE('',*,*,#188,.T.);
#259=ORIENTED_EDGE('',*,*,#186,.T.);
#260=ORIENTED_EDGE('',*,*,#188,.F.);
#261=PLANE('',#313);
#262=PLANE('',#314);
#263=PLANE('',#315);
#264=PLANE('',#316);
#265=PLANE('',#317);
#266=PLANE('',#318);
#267=PLANE('',#319);
#268=PLANE('',#320);
#269=PLANE('',#321);
#270=PLANE('',#322);
#271=PLANE('',#323);
#272=PLANE('',#324);
#273=PLANE('',#325);
#274=PLANE('',#329);
#275=PLANE('',#330);
#276=PLANE('',#331);
#277=PLANE('',#333);
#278=ADVANCED_FACE('',(#26),#261,.T.);
#279=ADVANCED_FACE('',(#27),#262,.T.);
#280=ADVANCED_FACE('',(#28),#263,.T.);
#281=ADVANCED_FACE('',(#29),#264,.T.);
#282=ADVANCED_FACE('',(#30),#265,.T.);
#283=ADVANCED_FACE('',(#31),#266,.T.);
#284=ADVANCED_FACE('',(#32),#267,.T.);
#285=ADVANCED_FACE('',(#33),#268,.T.);
#286=ADVANCED_FACE('',(#34),#269,.T.);
#287=ADVANCED_FACE('',(#35),#270,.T.);
#288=ADVANCED_FACE('',(#36),#271,.T.);
#289=ADVANCED_FACE('',(#37,#25),#272,.T.);
#290=ADVANCED_FACE('',(#38),#273,.F.);
#291=ADVANCED_FACE('',(#39),#18,.T.);
#292=ADVANCED_FACE('',(#40),#274,.T.);
#293=ADVANCED_FACE('',(#41),#275,.F.);
#294=ADVANCED_FACE('',(#42),#276,.F.);
#295=ADVANCED_FACE('',(#43),#277,.F.);
#296=ADVANCED_FACE('',(#44),#13,.T.);
#297=CLOSED_SHELL('',(#278,#279,#280,#281,#282,#283,#284,#285,#286,#287,
#288,#289,#290));
#298=CLOSED_SHELL('',(#291,#292,#293));
#299=CLOSED_SHELL('',(#294,#295,#296));
#300=DERIVED_UNIT_ELEMENT(#302,1.);
#301=DERIVED_UNIT_ELEMENT(#501,-3.);
#302=(
MASS_UNIT()
NAMED_UNIT(*)
SI_UNIT(.KILO.,.GRAM.)
);
#303=DERIVED_UNIT((#300,#301));
#304=MEASURE_REPRESENTATION_ITEM('density measure',
POSITIVE_RATIO_MEASURE(1380.),#303);
#305=PROPERTY_DEFINITION_REPRESENTATION(#310,#307);
#306=PROPERTY_DEFINITION_REPRESENTATION(#311,#308);
#307=REPRESENTATION('material name',(#309),#498);
#308=REPRESENTATION('density',(#304),#498);
#309=DESCRIPTIVE_REPRESENTATION_ITEM('Laminate, Red, Matte',
'Laminate, Red, Matte');
#310=PROPERTY_DEFINITION('material property','material name',#508);
#311=PROPERTY_DEFINITION('material property','density of part',#508);
#312=AXIS2_PLACEMENT_3D('',#416,#336,#337);
#313=AXIS2_PLACEMENT_3D('',#417,#338,#339);
#314=AXIS2_PLACEMENT_3D('',#426,#344,#345);
#315=AXIS2_PLACEMENT_3D('',#432,#349,#350);
#316=AXIS2_PLACEMENT_3D('',#438,#354,#355);
#317=AXIS2_PLACEMENT_3D('',#447,#360,#361);
#318=AXIS2_PLACEMENT_3D('',#450,#364,#365);
#319=AXIS2_PLACEMENT_3D('',#453,#368,#369);
#320=AXIS2_PLACEMENT_3D('',#454,#370,#371);
#321=AXIS2_PLACEMENT_3D('',#463,#376,#377);
#322=AXIS2_PLACEMENT_3D('',#469,#381,#382);
#323=AXIS2_PLACEMENT_3D('',#475,#386,#387);
#324=AXIS2_PLACEMENT_3D('',#478,#390,#391);
#325=AXIS2_PLACEMENT_3D('',#479,#392,#393);
#326=AXIS2_PLACEMENT_3D('',#480,#394,#395);
#327=AXIS2_PLACEMENT_3D('',#482,#396,#397);
#328=AXIS2_PLACEMENT_3D('',#485,#399,#400);
#329=AXIS2_PLACEMENT_3D('',#486,#401,#402);
#330=AXIS2_PLACEMENT_3D('',#487,#403,#404);
#331=AXIS2_PLACEMENT_3D('',#488,#405,#406);
#332=AXIS2_PLACEMENT_3D('',#490,#407,#408);
#333=AXIS2_PLACEMENT_3D('',#491,#409,#410);
#334=AXIS2_PLACEMENT_3D('',#493,#411,#412);
#335=AXIS2_PLACEMENT_3D('',#494,#413,#414);
#336=DIRECTION('axis',(0.,0.,1.));
#337=DIRECTION('refdir',(1.,0.,0.));
#338=DIRECTION('center_axis',(0.,0.,-1.));
#339=DIRECTION('ref_axis',(0.,-1.,0.));
#340=DIRECTION('',(0.,1.,0.));
#341=DIRECTION('',(-1.,0.,0.));
#342=DIRECTION('',(0.,-1.,0.));
#343=DIRECTION('',(-1.,0.,0.));
#344=DIRECTION('center_axis',(-1.,0.,0.));
#345=DIRECTION('ref_axis',(0.,0.,1.));
#346=DIRECTION('',(0.,0.,1.));
#347=DIRECTION('',(0.,1.,-7.40148683083437E-16));
#348=DIRECTION('',(0.,0.,-1.));
#349=DIRECTION('center_axis',(-1.,0.,0.));
#350=DIRECTION('ref_axis',(0.,-1.,0.));
#351=DIRECTION('',(0.,0.,1.));
#352=DIRECTION('',(0.,1.,0.));
#353=DIRECTION('',(0.,0.,1.));
#354=DIRECTION('center_axis',(1.,0.,0.));
#355=DIRECTION('ref_axis',(0.,1.,0.));
#356=DIRECTION('',(0.,-1.,0.));
#357=DIRECTION('',(0.,0.,1.));
#358=DIRECTION('',(0.,1.,0.));
#359=DIRECTION('',(0.,0.,1.));
#360=DIRECTION('center_axis',(0.,-1.,0.));
#361=DIRECTION('ref_axis',(1.,0.,0.));
#362=DIRECTION('',(-1.,0.,0.));
#363=DIRECTION('',(-1.,0.,0.));
#364=DIRECTION('center_axis',(0.,1.,0.));
#365=DIRECTION('ref_axis',(-1.,0.,0.));
#366=DIRECTION('',(1.,0.,0.));
#367=DIRECTION('',(-1.,0.,0.));
#368=DIRECTION('center_axis',(0.,0.,1.));
#369=DIRECTION('ref_axis',(1.,0.,0.));
#370=DIRECTION('center_axis',(-1.,0.,0.));
#371=DIRECTION('ref_axis',(0.,-1.,0.));
#372=DIRECTION('',(0.,1.,0.));
#373=DIRECTION('',(0.,0.,1.));
#374=DIRECTION('',(0.,-1.,0.));
#375=DIRECTION('',(0.,0.,1.));
#376=DIRECTION('center_axis',(0.,1.,0.));
#377=DIRECTION('ref_axis',(-1.,0.,0.));
#378=DIRECTION('',(1.,0.,0.));
#379=DIRECTION('',(-1.,0.,0.));
#380=DIRECTION('',(0.,0.,1.));
#381=DIRECTION('center_axis',(1.,0.,0.));
#382=DIRECTION('ref_axis',(0.,1.,0.));
#383=DIRECTION('',(0.,-1.,0.));
#384=DIRECTION('',(0.,1.,0.));
#385=DIRECTION('',(0.,0.,1.));
#386=DIRECTION('center_axis',(0.,-1.,0.));
#387=DIRECTION('ref_axis',(1.,0.,0.));
#388=DIRECTION('',(-1.,0.,0.));
#389=DIRECTION('',(1.,0.,0.));
#390=DIRECTION('center_axis',(0.,0.,1.));
#391=DIRECTION('ref_axis',(1.,0.,0.));
#392=DIRECTION('center_axis',(0.,0.,1.));
#393=DIRECTION('ref_axis',(1.,0.,0.));
#394=DIRECTION('center_axis',(0.,0.,1.));
#395=DIRECTION('ref_axis',(-1.,0.,0.));
#396=DIRECTION('center_axis',(0.,0.,1.));
#397=DIRECTION('ref_axis',(-1.,0.,0.));
#398=DIRECTION('',(0.,0.,-1.));
#399=DIRECTION('center_axis',(0.,0.,1.));
#400=DIRECTION('ref_axis',(-1.,0.,0.));
#401=DIRECTION('center_axis',(0.,0.,1.));
#402=DIRECTION('ref_axis',(-1.,0.,0.));
#403=DIRECTION('center_axis',(0.,0.,1.));
#404=DIRECTION('ref_axis',(-1.,0.,0.));
#405=DIRECTION('center_axis',(0.,0.,-1.));
#406=DIRECTION('ref_axis',(-1.,0.,0.));
#407=DIRECTION('center_axis',(0.,0.,-1.));
#408=DIRECTION('ref_axis',(1.,0.,0.));
#409=DIRECTION('center_axis',(0.,0.,1.));
#410=DIRECTION('ref_axis',(1.,0.,0.));
#411=DIRECTION('center_axis',(0.,0.,1.));
#412=DIRECTION('ref_axis',(-1.,0.,0.));
#413=DIRECTION('center_axis',(0.,0.,1.));
#414=DIRECTION('ref_axis',(1.,0.,0.));
#415=DIRECTION('',(-0.111794773067864,1.36909110998965E-17,0.993731316158802));
#416=CARTESIAN_POINT('',(0.,0.,0.));
#417=CARTESIAN_POINT('Origin',(12.5,15.5,15.));
#418=CARTESIAN_POINT('',(12.5,12.5,15.));
#419=CARTESIAN_POINT('',(12.5,15.5,15.));
#420=CARTESIAN_POINT('',(12.5,15.5,15.));
#421=CARTESIAN_POINT('',(2.5,12.5,15.));
#422=CARTESIAN_POINT('',(12.5,12.5,15.));
#423=CARTESIAN_POINT('',(2.5,15.5,15.));
#424=CARTESIAN_POINT('',(2.5,12.5,15.));
#425=CARTESIAN_POINT('',(12.5,15.5,15.));
#426=CARTESIAN_POINT('Origin',(2.5,14.,16.5));
#427=CARTESIAN_POINT('',(2.5,12.5,18.));
#428=CARTESIAN_POINT('',(2.5,12.5,18.));
#429=CARTESIAN_POINT('',(2.5,15.5,18.));
#430=CARTESIAN_POINT('',(2.5,15.5,18.));
#431=CARTESIAN_POINT('',(2.5,15.5,15.));
#432=CARTESIAN_POINT('Origin',(12.5,15.5,10.));
#433=CARTESIAN_POINT('',(12.5,15.5,10.));
#434=CARTESIAN_POINT('',(12.5,15.5,10.));
#435=CARTESIAN_POINT('',(12.5,12.5,10.));
#436=CARTESIAN_POINT('',(12.5,15.25,10.));
#437=CARTESIAN_POINT('',(12.5,12.5,10.));
#438=CARTESIAN_POINT('Origin',(15.5,12.5,10.));
#439=CARTESIAN_POINT('',(15.5,15.5,10.));
#440=CARTESIAN_POINT('',(15.5,12.5,10.));
#441=CARTESIAN_POINT('',(15.5,13.75,10.));
#442=CARTESIAN_POINT('',(15.5,15.5,18.));
#443=CARTESIAN_POINT('',(15.5,15.5,10.));
#444=CARTESIAN_POINT('',(15.5,12.5,18.));
#445=CARTESIAN_POINT('',(15.5,15.5,18.));
#446=CARTESIAN_POINT('',(15.5,12.5,10.));
#447=CARTESIAN_POINT('Origin',(12.5,12.5,10.));
#448=CARTESIAN_POINT('',(6.25,12.5,10.));
#449=CARTESIAN_POINT('',(12.5,12.5,18.));
#450=CARTESIAN_POINT('Origin',(15.5,15.5,10.));
#451=CARTESIAN_POINT('',(7.75,15.5,10.));
#452=CARTESIAN_POINT('',(12.5,15.5,18.));
#453=CARTESIAN_POINT('Origin',(14.,14.,18.));
#454=CARTESIAN_POINT('Origin',(-17.5,30.,0.));
#455=CARTESIAN_POINT('',(-17.5,0.,0.));
#456=CARTESIAN_POINT('',(-17.5,30.,0.));
#457=CARTESIAN_POINT('',(-17.5,0.,0.));
#458=CARTESIAN_POINT('',(-17.5,0.,10.));
#459=CARTESIAN_POINT('',(-17.5,0.,0.));
#460=CARTESIAN_POINT('',(-17.5,30.,10.));
#461=CARTESIAN_POINT('',(-17.5,0.,10.));
#462=CARTESIAN_POINT('',(-17.5,30.,0.));
#463=CARTESIAN_POINT('Origin',(17.5,30.,0.));
#464=CARTESIAN_POINT('',(17.5,30.,0.));
#465=CARTESIAN_POINT('',(-17.5,30.,0.));
#466=CARTESIAN_POINT('',(17.5,30.,10.));
#467=CARTESIAN_POINT('',(-17.5,30.,10.));
#468=CARTESIAN_POINT('',(17.5,30.,0.));
#469=CARTESIAN_POINT('Origin',(17.5,0.,0.));
#470=CARTESIAN_POINT('',(17.5,0.,0.));
#471=CARTESIAN_POINT('',(17.5,30.,0.));
#472=CARTESIAN_POINT('',(17.5,0.,10.));
#473=CARTESIAN_POINT('',(17.5,30.,10.));
#474=CARTESIAN_POINT('',(17.5,0.,0.));
#475=CARTESIAN_POINT('Origin',(-17.5,0.,0.));
#476=CARTESIAN_POINT('',(17.5,0.,0.));
#477=CARTESIAN_POINT('',(17.5,0.,10.));
#478=CARTESIAN_POINT('Origin',(0.,15.,10.));
#479=CARTESIAN_POINT('Origin',(0.,15.,0.));
#480=CARTESIAN_POINT('Origin',(-3.,15.,10.));
#481=CARTESIAN_POINT('',(9.5,15.,11.));
#482=CARTESIAN_POINT('Origin',(-3.,15.,11.));
#483=CARTESIAN_POINT('',(9.5,15.,10.));
#484=CARTESIAN_POINT('',(9.5,15.,10.));
#485=CARTESIAN_POINT('Origin',(-3.,15.,10.));
#486=CARTESIAN_POINT('Origin',(-3.,15.,11.));
#487=CARTESIAN_POINT('Origin',(-3.,15.,10.));
#488=CARTESIAN_POINT('Origin',(4.00000005960464,14.0000002086163,15.));
#489=CARTESIAN_POINT('',(3.50000005960464,14.0000002086163,15.));
#490=CARTESIAN_POINT('Origin',(4.00000005960464,14.0000002086163,15.));
#491=CARTESIAN_POINT('Origin',(4.00000005960464,14.0000002086163,11.));
#492=CARTESIAN_POINT('',(3.95000005960464,14.0000002086163,11.));
#493=CARTESIAN_POINT('Origin',(4.00000005960464,14.0000002086163,11.));
#494=CARTESIAN_POINT('Origin',(4.00000005960464,14.0000002086163,15.));
#495=CARTESIAN_POINT('',(3.50000005960464,14.0000002086163,15.));
#496=UNCERTAINTY_MEASURE_WITH_UNIT(LENGTH_MEASURE(0.01),#500,
'DISTANCE_ACCURACY_VALUE',
'Maximum model space distance between geometric entities at asserted c
onnectivities');
#497=UNCERTAINTY_MEASURE_WITH_UNIT(LENGTH_MEASURE(0.01),#500,
'DISTANCE_ACCURACY_VALUE',
'Maximum model space distance between geometric entities at asserted c
onnectivities');
#498=(
GEOMETRIC_REPRESENTATION_CONTEXT(3)
GLOBAL_UNCERTAINTY_ASSIGNED_CONTEXT((#496))
GLOBAL_UNIT_ASSIGNED_CONTEXT((#500,#502,#503))
REPRESENTATION_CONTEXT('','3D')
);
#499=(
GEOMETRIC_REPRESENTATION_CONTEXT(3)
GLOBAL_UNCERTAINTY_ASSIGNED_CONTEXT((#497))
GLOBAL_UNIT_ASSIGNED_CONTEXT((#500,#502,#503))
REPRESENTATION_CONTEXT('','3D')
);
#500=(
LENGTH_UNIT()
NAMED_UNIT(*)
SI_UNIT(.MILLI.,.METRE.)
);
#501=(
LENGTH_UNIT()
NAMED_UNIT(*)
SI_UNIT($,.METRE.)
);
#502=(
NAMED_UNIT(*)
PLANE_ANGLE_UNIT()
SI_UNIT($,.RADIAN.)
);
#503=(
NAMED_UNIT(*)
SI_UNIT($,.STERADIAN.)
SOLID_ANGLE_UNIT()
);
#504=SHAPE_DEFINITION_REPRESENTATION(#505,#506);
#505=PRODUCT_DEFINITION_SHAPE('',$,#508);
#506=SHAPE_REPRESENTATION('',(#312),#498);
#507=PRODUCT_DEFINITION_CONTEXT('part definition',#512,'design');
#508=PRODUCT_DEFINITION('turn_table_scribe','turn_table_scribe v2',#509,
#507);
#509=PRODUCT_DEFINITION_FORMATION('',$,#514);
#510=PRODUCT_RELATED_PRODUCT_CATEGORY('turn_table_scribe v2',
'turn_table_scribe v2',(#514));
#511=APPLICATION_PROTOCOL_DEFINITION('international standard',
'automotive_design',2009,#512);
#512=APPLICATION_CONTEXT(
'Core Data for Automotive Mechanical Design Process');
#513=PRODUCT_CONTEXT('part definition',#512,'mechanical');
#514=PRODUCT('turn_table_scribe','turn_table_scribe v2',$,(#513));
#515=PRESENTATION_STYLE_ASSIGNMENT((#519));
#516=PRESENTATION_STYLE_ASSIGNMENT((#520));
#517=PRESENTATION_STYLE_ASSIGNMENT((#521));
#518=PRESENTATION_STYLE_ASSIGNMENT((#522));
#519=SURFACE_STYLE_USAGE(.BOTH.,#523);
#520=SURFACE_STYLE_USAGE(.BOTH.,#524);
#521=SURFACE_STYLE_USAGE(.BOTH.,#525);
#522=SURFACE_STYLE_USAGE(.BOTH.,#526);
#523=SURFACE_SIDE_STYLE('',(#527));
#524=SURFACE_SIDE_STYLE('',(#528));
#525=SURFACE_SIDE_STYLE('',(#529));
#526=SURFACE_SIDE_STYLE('',(#530));
#527=SURFACE_STYLE_FILL_AREA(#531);
#528=SURFACE_STYLE_FILL_AREA(#532);
#529=SURFACE_STYLE_FILL_AREA(#533);
#530=SURFACE_STYLE_FILL_AREA(#534);
#531=FILL_AREA_STYLE('Plastic - Matte (Red)',(#535));
#532=FILL_AREA_STYLE('Phenolic (Amber)',(#536));
#533=FILL_AREA_STYLE('Plastic - Glossy (Black)',(#537));
#534=FILL_AREA_STYLE('Aluminum - Satin',(#538));
#535=FILL_AREA_STYLE_COLOUR('Plastic - Matte (Red)',#539);
#536=FILL_AREA_STYLE_COLOUR('Phenolic (Amber)',#540);
#537=FILL_AREA_STYLE_COLOUR('Plastic - Glossy (Black)',#541);
#538=FILL_AREA_STYLE_COLOUR('Aluminum - Satin',#542);
#539=COLOUR_RGB('Plastic - Matte (Red)',0.768627450980392,0.207843137254902,
0.152941176470588);
#540=COLOUR_RGB('Phenolic (Amber)',0.964705882352941,0.701960784313725,
0.152941176470588);
#541=COLOUR_RGB('Plastic - Glossy (Black)',0.0980392156862745,0.0980392156862745,
0.0980392156862745);
#542=COLOUR_RGB('Aluminum - Satin',0.96078431372549,0.96078431372549,0.964705882352941);
ENDSEC;
END-ISO-10303-21;
