ISO-10303-21;
HEADER;
/* Generated by software containing ST-Developer
 * from STEP Tools, Inc. (www.steptools.com) 
 */

FILE_DESCRIPTION(
/* description */ (''),
/* implementation_level */ '2;1');

FILE_NAME(
/* name */ 'joint_press_fit.step',
/* time_stamp */ '2025-09-17T08:45:51-04:00',
/* author */ (''),
/* organization */ (''),
/* preprocessor_version */ 'ST-DEVELOPER v20.1',
/* originating_system */ 'Autodesk Translation Framework v14.10.0.0',
/* authorisation */ '');

FILE_SCHEMA (('AUTOMOTIVE_DESIGN { 1 0 10303 214 3 1 1 }'));
ENDSEC;

DATA;
#10=MECHANICAL_DESIGN_GEOMETRIC_PRESENTATION_REPRESENTATION('',(#13),#649);
#11=SHAPE_REPRESENTATION_RELATIONSHIP('SRR','None',#656,#12);
#12=ADVANCED_BREP_SHAPE_REPRESENTATION('',(#14),#648);
#13=STYLED_ITEM('',(#665),#14);
#14=MANIFOLD_SOLID_BREP('Body1',#397);
#15=PLANE('',#414);
#16=PLANE('',#415);
#17=PLANE('',#419);
#18=PLANE('',#420);
#19=PLANE('',#421);
#20=PLANE('',#422);
#21=PLANE('',#423);
#22=PLANE('',#424);
#23=PLANE('',#425);
#24=PLANE('',#426);
#25=PLANE('',#427);
#26=PLANE('',#428);
#27=PLANE('',#429);
#28=PLANE('',#430);
#29=PLANE('',#431);
#30=PLANE('',#432);
#31=PLANE('',#433);
#32=PLANE('',#434);
#33=FACE_OUTER_BOUND('',#53,.T.);
#34=FACE_OUTER_BOUND('',#54,.T.);
#35=FACE_OUTER_BOUND('',#55,.T.);
#36=FACE_OUTER_BOUND('',#56,.T.);
#37=FACE_OUTER_BOUND('',#57,.T.);
#38=FACE_OUTER_BOUND('',#58,.T.);
#39=FACE_OUTER_BOUND('',#59,.T.);
#40=FACE_OUTER_BOUND('',#60,.T.);
#41=FACE_OUTER_BOUND('',#61,.T.);
#42=FACE_OUTER_BOUND('',#62,.T.);
#43=FACE_OUTER_BOUND('',#63,.T.);
#44=FACE_OUTER_BOUND('',#64,.T.);
#45=FACE_OUTER_BOUND('',#65,.T.);
#46=FACE_OUTER_BOUND('',#66,.T.);
#47=FACE_OUTER_BOUND('',#67,.T.);
#48=FACE_OUTER_BOUND('',#68,.T.);
#49=FACE_OUTER_BOUND('',#69,.T.);
#50=FACE_OUTER_BOUND('',#70,.T.);
#51=FACE_OUTER_BOUND('',#71,.T.);
#52=FACE_OUTER_BOUND('',#72,.T.);
#53=EDGE_LOOP('',(#267,#268,#269,#270));
#54=EDGE_LOOP('',(#271,#272,#273,#274));
#55=EDGE_LOOP('',(#275,#276,#277,#278,#279,#280,#281,#282,#283,#284,#285,
#286,#287,#288,#289,#290,#291,#292));
#56=EDGE_LOOP('',(#293,#294,#295,#296));
#57=EDGE_LOOP('',(#297,#298,#299,#300));
#58=EDGE_LOOP('',(#301,#302,#303,#304));
#59=EDGE_LOOP('',(#305,#306,#307,#308));
#60=EDGE_LOOP('',(#309,#310,#311,#312));
#61=EDGE_LOOP('',(#313,#314,#315,#316));
#62=EDGE_LOOP('',(#317,#318,#319,#320));
#63=EDGE_LOOP('',(#321,#322,#323,#324));
#64=EDGE_LOOP('',(#325,#326,#327,#328));
#65=EDGE_LOOP('',(#329,#330,#331,#332));
#66=EDGE_LOOP('',(#333,#334,#335,#336));
#67=EDGE_LOOP('',(#337,#338,#339,#340));
#68=EDGE_LOOP('',(#341,#342,#343,#344));
#69=EDGE_LOOP('',(#345,#346,#347,#348));
#70=EDGE_LOOP('',(#349,#350,#351,#352));
#71=EDGE_LOOP('',(#353,#354,#355,#356));
#72=EDGE_LOOP('',(#357,#358,#359,#360,#361,#362,#363,#364,#365,#366,#367,
#368,#369,#370,#371,#372,#373,#374));
#73=LINE('',#541,#123);
#74=LINE('',#544,#124);
#75=LINE('',#547,#125);
#76=LINE('',#549,#126);
#77=LINE('',#550,#127);
#78=LINE('',#553,#128);
#79=LINE('',#557,#129);
#80=LINE('',#559,#130);
#81=LINE('',#561,#131);
#82=LINE('',#563,#132);
#83=LINE('',#565,#133);
#84=LINE('',#567,#134);
#85=LINE('',#569,#135);
#86=LINE('',#571,#136);
#87=LINE('',#573,#137);
#88=LINE('',#575,#138);
#89=LINE('',#577,#139);
#90=LINE('',#579,#140);
#91=LINE('',#581,#141);
#92=LINE('',#582,#142);
#93=LINE('',#587,#143);
#94=LINE('',#588,#144);
#95=LINE('',#591,#145);
#96=LINE('',#592,#146);
#97=LINE('',#595,#147);
#98=LINE('',#596,#148);
#99=LINE('',#598,#149);
#100=LINE('',#601,#150);
#101=LINE('',#602,#151);
#102=LINE('',#605,#152);
#103=LINE('',#606,#153);
#104=LINE('',#609,#154);
#105=LINE('',#610,#155);
#106=LINE('',#613,#156);
#107=LINE('',#614,#157);
#108=LINE('',#617,#158);
#109=LINE('',#618,#159);
#110=LINE('',#621,#160);
#111=LINE('',#622,#161);
#112=LINE('',#625,#162);
#113=LINE('',#626,#163);
#114=LINE('',#629,#164);
#115=LINE('',#630,#165);
#116=LINE('',#633,#166);
#117=LINE('',#634,#167);
#118=LINE('',#637,#168);
#119=LINE('',#638,#169);
#120=LINE('',#641,#170);
#121=LINE('',#642,#171);
#122=LINE('',#644,#172);
#123=VECTOR('',#441,10.);
#124=VECTOR('',#444,10.);
#125=VECTOR('',#447,10.);
#126=VECTOR('',#448,10.);
#127=VECTOR('',#449,10.);
#128=VECTOR('',#452,10.);
#129=VECTOR('',#455,10.);
#130=VECTOR('',#456,10.);
#131=VECTOR('',#457,10.);
#132=VECTOR('',#458,10.);
#133=VECTOR('',#459,10.);
#134=VECTOR('',#460,10.);
#135=VECTOR('',#461,10.);
#136=VECTOR('',#462,10.);
#137=VECTOR('',#463,10.);
#138=VECTOR('',#464,10.);
#139=VECTOR('',#465,10.);
#140=VECTOR('',#466,10.);
#141=VECTOR('',#467,10.);
#142=VECTOR('',#468,10.);
#143=VECTOR('',#473,10.);
#144=VECTOR('',#474,10.);
#145=VECTOR('',#477,10.);
#146=VECTOR('',#478,10.);
#147=VECTOR('',#481,10.);
#148=VECTOR('',#482,10.);
#149=VECTOR('',#485,10.);
#150=VECTOR('',#488,10.);
#151=VECTOR('',#489,10.);
#152=VECTOR('',#492,10.);
#153=VECTOR('',#493,10.);
#154=VECTOR('',#496,10.);
#155=VECTOR('',#497,10.);
#156=VECTOR('',#500,10.);
#157=VECTOR('',#501,10.);
#158=VECTOR('',#504,10.);
#159=VECTOR('',#505,10.);
#160=VECTOR('',#508,10.);
#161=VECTOR('',#509,10.);
#162=VECTOR('',#512,10.);
#163=VECTOR('',#513,10.);
#164=VECTOR('',#516,10.);
#165=VECTOR('',#517,10.);
#166=VECTOR('',#520,10.);
#167=VECTOR('',#521,10.);
#168=VECTOR('',#524,10.);
#169=VECTOR('',#525,10.);
#170=VECTOR('',#528,10.);
#171=VECTOR('',#529,10.);
#172=VECTOR('',#532,10.);
#173=CIRCLE('',#412,4.);
#174=CIRCLE('',#413,4.);
#175=CIRCLE('',#416,4.);
#176=CIRCLE('',#418,4.);
#177=VERTEX_POINT('',#537);
#178=VERTEX_POINT('',#538);
#179=VERTEX_POINT('',#540);
#180=VERTEX_POINT('',#542);
#181=VERTEX_POINT('',#546);
#182=VERTEX_POINT('',#548);
#183=VERTEX_POINT('',#552);
#184=VERTEX_POINT('',#554);
#185=VERTEX_POINT('',#556);
#186=VERTEX_POINT('',#558);
#187=VERTEX_POINT('',#560);
#188=VERTEX_POINT('',#562);
#189=VERTEX_POINT('',#564);
#190=VERTEX_POINT('',#566);
#191=VERTEX_POINT('',#568);
#192=VERTEX_POINT('',#570);
#193=VERTEX_POINT('',#572);
#194=VERTEX_POINT('',#574);
#195=VERTEX_POINT('',#576);
#196=VERTEX_POINT('',#578);
#197=VERTEX_POINT('',#580);
#198=VERTEX_POINT('',#584);
#199=VERTEX_POINT('',#585);
#200=VERTEX_POINT('',#590);
#201=VERTEX_POINT('',#594);
#202=VERTEX_POINT('',#600);
#203=VERTEX_POINT('',#604);
#204=VERTEX_POINT('',#608);
#205=VERTEX_POINT('',#612);
#206=VERTEX_POINT('',#616);
#207=VERTEX_POINT('',#620);
#208=VERTEX_POINT('',#624);
#209=VERTEX_POINT('',#628);
#210=VERTEX_POINT('',#632);
#211=VERTEX_POINT('',#636);
#212=VERTEX_POINT('',#640);
#213=EDGE_CURVE('',#177,#178,#173,.T.);
#214=EDGE_CURVE('',#178,#179,#73,.T.);
#215=EDGE_CURVE('',#179,#180,#174,.T.);
#216=EDGE_CURVE('',#180,#177,#74,.T.);
#217=EDGE_CURVE('',#181,#180,#75,.T.);
#218=EDGE_CURVE('',#181,#182,#76,.T.);
#219=EDGE_CURVE('',#177,#182,#77,.T.);
#220=EDGE_CURVE('',#179,#183,#78,.T.);
#221=EDGE_CURVE('',#184,#183,#175,.T.);
#222=EDGE_CURVE('',#184,#185,#79,.T.);
#223=EDGE_CURVE('',#185,#186,#80,.T.);
#224=EDGE_CURVE('',#187,#186,#81,.T.);
#225=EDGE_CURVE('',#188,#187,#82,.T.);
#226=EDGE_CURVE('',#189,#188,#83,.T.);
#227=EDGE_CURVE('',#189,#190,#84,.T.);
#228=EDGE_CURVE('',#191,#190,#85,.T.);
#229=EDGE_CURVE('',#192,#191,#86,.T.);
#230=EDGE_CURVE('',#193,#192,#87,.T.);
#231=EDGE_CURVE('',#193,#194,#88,.T.);
#232=EDGE_CURVE('',#195,#194,#89,.T.);
#233=EDGE_CURVE('',#196,#195,#90,.T.);
#234=EDGE_CURVE('',#197,#196,#91,.T.);
#235=EDGE_CURVE('',#197,#181,#92,.T.);
#236=EDGE_CURVE('',#198,#199,#176,.T.);
#237=EDGE_CURVE('',#199,#184,#93,.T.);
#238=EDGE_CURVE('',#183,#198,#94,.T.);
#239=EDGE_CURVE('',#200,#199,#95,.T.);
#240=EDGE_CURVE('',#185,#200,#96,.T.);
#241=EDGE_CURVE('',#197,#201,#97,.T.);
#242=EDGE_CURVE('',#182,#201,#98,.T.);
#243=EDGE_CURVE('',#198,#178,#99,.T.);
#244=EDGE_CURVE('',#202,#200,#100,.T.);
#245=EDGE_CURVE('',#186,#202,#101,.T.);
#246=EDGE_CURVE('',#203,#202,#102,.T.);
#247=EDGE_CURVE('',#187,#203,#103,.T.);
#248=EDGE_CURVE('',#204,#203,#104,.T.);
#249=EDGE_CURVE('',#188,#204,#105,.T.);
#250=EDGE_CURVE('',#205,#204,#106,.T.);
#251=EDGE_CURVE('',#189,#205,#107,.T.);
#252=EDGE_CURVE('',#206,#205,#108,.T.);
#253=EDGE_CURVE('',#190,#206,#109,.T.);
#254=EDGE_CURVE('',#207,#206,#110,.T.);
#255=EDGE_CURVE('',#191,#207,#111,.T.);
#256=EDGE_CURVE('',#208,#207,#112,.T.);
#257=EDGE_CURVE('',#192,#208,#113,.T.);
#258=EDGE_CURVE('',#209,#208,#114,.T.);
#259=EDGE_CURVE('',#193,#209,#115,.T.);
#260=EDGE_CURVE('',#210,#209,#116,.T.);
#261=EDGE_CURVE('',#194,#210,#117,.T.);
#262=EDGE_CURVE('',#211,#210,#118,.T.);
#263=EDGE_CURVE('',#195,#211,#119,.T.);
#264=EDGE_CURVE('',#212,#211,#120,.T.);
#265=EDGE_CURVE('',#196,#212,#121,.T.);
#266=EDGE_CURVE('',#201,#212,#122,.T.);
#267=ORIENTED_EDGE('',*,*,#213,.T.);
#268=ORIENTED_EDGE('',*,*,#214,.T.);
#269=ORIENTED_EDGE('',*,*,#215,.T.);
#270=ORIENTED_EDGE('',*,*,#216,.T.);
#271=ORIENTED_EDGE('',*,*,#216,.F.);
#272=ORIENTED_EDGE('',*,*,#217,.F.);
#273=ORIENTED_EDGE('',*,*,#218,.T.);
#274=ORIENTED_EDGE('',*,*,#219,.F.);
#275=ORIENTED_EDGE('',*,*,#215,.F.);
#276=ORIENTED_EDGE('',*,*,#220,.T.);
#277=ORIENTED_EDGE('',*,*,#221,.F.);
#278=ORIENTED_EDGE('',*,*,#222,.T.);
#279=ORIENTED_EDGE('',*,*,#223,.T.);
#280=ORIENTED_EDGE('',*,*,#224,.F.);
#281=ORIENTED_EDGE('',*,*,#225,.F.);
#282=ORIENTED_EDGE('',*,*,#226,.F.);
#283=ORIENTED_EDGE('',*,*,#227,.T.);
#284=ORIENTED_EDGE('',*,*,#228,.F.);
#285=ORIENTED_EDGE('',*,*,#229,.F.);
#286=ORIENTED_EDGE('',*,*,#230,.F.);
#287=ORIENTED_EDGE('',*,*,#231,.T.);
#288=ORIENTED_EDGE('',*,*,#232,.F.);
#289=ORIENTED_EDGE('',*,*,#233,.F.);
#290=ORIENTED_EDGE('',*,*,#234,.F.);
#291=ORIENTED_EDGE('',*,*,#235,.T.);
#292=ORIENTED_EDGE('',*,*,#217,.T.);
#293=ORIENTED_EDGE('',*,*,#236,.T.);
#294=ORIENTED_EDGE('',*,*,#237,.T.);
#295=ORIENTED_EDGE('',*,*,#221,.T.);
#296=ORIENTED_EDGE('',*,*,#238,.T.);
#297=ORIENTED_EDGE('',*,*,#237,.F.);
#298=ORIENTED_EDGE('',*,*,#239,.F.);
#299=ORIENTED_EDGE('',*,*,#240,.F.);
#300=ORIENTED_EDGE('',*,*,#222,.F.);
#301=ORIENTED_EDGE('',*,*,#235,.F.);
#302=ORIENTED_EDGE('',*,*,#241,.T.);
#303=ORIENTED_EDGE('',*,*,#242,.F.);
#304=ORIENTED_EDGE('',*,*,#218,.F.);
#305=ORIENTED_EDGE('',*,*,#214,.F.);
#306=ORIENTED_EDGE('',*,*,#243,.F.);
#307=ORIENTED_EDGE('',*,*,#238,.F.);
#308=ORIENTED_EDGE('',*,*,#220,.F.);
#309=ORIENTED_EDGE('',*,*,#223,.F.);
#310=ORIENTED_EDGE('',*,*,#240,.T.);
#311=ORIENTED_EDGE('',*,*,#244,.F.);
#312=ORIENTED_EDGE('',*,*,#245,.F.);
#313=ORIENTED_EDGE('',*,*,#224,.T.);
#314=ORIENTED_EDGE('',*,*,#245,.T.);
#315=ORIENTED_EDGE('',*,*,#246,.F.);
#316=ORIENTED_EDGE('',*,*,#247,.F.);
#317=ORIENTED_EDGE('',*,*,#225,.T.);
#318=ORIENTED_EDGE('',*,*,#247,.T.);
#319=ORIENTED_EDGE('',*,*,#248,.F.);
#320=ORIENTED_EDGE('',*,*,#249,.F.);
#321=ORIENTED_EDGE('',*,*,#226,.T.);
#322=ORIENTED_EDGE('',*,*,#249,.T.);
#323=ORIENTED_EDGE('',*,*,#250,.F.);
#324=ORIENTED_EDGE('',*,*,#251,.F.);
#325=ORIENTED_EDGE('',*,*,#227,.F.);
#326=ORIENTED_EDGE('',*,*,#251,.T.);
#327=ORIENTED_EDGE('',*,*,#252,.F.);
#328=ORIENTED_EDGE('',*,*,#253,.F.);
#329=ORIENTED_EDGE('',*,*,#228,.T.);
#330=ORIENTED_EDGE('',*,*,#253,.T.);
#331=ORIENTED_EDGE('',*,*,#254,.F.);
#332=ORIENTED_EDGE('',*,*,#255,.F.);
#333=ORIENTED_EDGE('',*,*,#229,.T.);
#334=ORIENTED_EDGE('',*,*,#255,.T.);
#335=ORIENTED_EDGE('',*,*,#256,.F.);
#336=ORIENTED_EDGE('',*,*,#257,.F.);
#337=ORIENTED_EDGE('',*,*,#230,.T.);
#338=ORIENTED_EDGE('',*,*,#257,.T.);
#339=ORIENTED_EDGE('',*,*,#258,.F.);
#340=ORIENTED_EDGE('',*,*,#259,.F.);
#341=ORIENTED_EDGE('',*,*,#231,.F.);
#342=ORIENTED_EDGE('',*,*,#259,.T.);
#343=ORIENTED_EDGE('',*,*,#260,.F.);
#344=ORIENTED_EDGE('',*,*,#261,.F.);
#345=ORIENTED_EDGE('',*,*,#232,.T.);
#346=ORIENTED_EDGE('',*,*,#261,.T.);
#347=ORIENTED_EDGE('',*,*,#262,.F.);
#348=ORIENTED_EDGE('',*,*,#263,.F.);
#349=ORIENTED_EDGE('',*,*,#233,.T.);
#350=ORIENTED_EDGE('',*,*,#263,.T.);
#351=ORIENTED_EDGE('',*,*,#264,.F.);
#352=ORIENTED_EDGE('',*,*,#265,.F.);
#353=ORIENTED_EDGE('',*,*,#234,.T.);
#354=ORIENTED_EDGE('',*,*,#265,.T.);
#355=ORIENTED_EDGE('',*,*,#266,.F.);
#356=ORIENTED_EDGE('',*,*,#241,.F.);
#357=ORIENTED_EDGE('',*,*,#213,.F.);
#358=ORIENTED_EDGE('',*,*,#219,.T.);
#359=ORIENTED_EDGE('',*,*,#242,.T.);
#360=ORIENTED_EDGE('',*,*,#266,.T.);
#361=ORIENTED_EDGE('',*,*,#264,.T.);
#362=ORIENTED_EDGE('',*,*,#262,.T.);
#363=ORIENTED_EDGE('',*,*,#260,.T.);
#364=ORIENTED_EDGE('',*,*,#258,.T.);
#365=ORIENTED_EDGE('',*,*,#256,.T.);
#366=ORIENTED_EDGE('',*,*,#254,.T.);
#367=ORIENTED_EDGE('',*,*,#252,.T.);
#368=ORIENTED_EDGE('',*,*,#250,.T.);
#369=ORIENTED_EDGE('',*,*,#248,.T.);
#370=ORIENTED_EDGE('',*,*,#246,.T.);
#371=ORIENTED_EDGE('',*,*,#244,.T.);
#372=ORIENTED_EDGE('',*,*,#239,.T.);
#373=ORIENTED_EDGE('',*,*,#236,.F.);
#374=ORIENTED_EDGE('',*,*,#243,.T.);
#375=CYLINDRICAL_SURFACE('',#411,4.);
#376=CYLINDRICAL_SURFACE('',#417,4.);
#377=ADVANCED_FACE('',(#33),#375,.T.);
#378=ADVANCED_FACE('',(#34),#15,.T.);
#379=ADVANCED_FACE('',(#35),#16,.F.);
#380=ADVANCED_FACE('',(#36),#376,.T.);
#381=ADVANCED_FACE('',(#37),#17,.T.);
#382=ADVANCED_FACE('',(#38),#18,.T.);
#383=ADVANCED_FACE('',(#39),#19,.T.);
#384=ADVANCED_FACE('',(#40),#20,.T.);
#385=ADVANCED_FACE('',(#41),#21,.T.);
#386=ADVANCED_FACE('',(#42),#22,.T.);
#387=ADVANCED_FACE('',(#43),#23,.T.);
#388=ADVANCED_FACE('',(#44),#24,.T.);
#389=ADVANCED_FACE('',(#45),#25,.T.);
#390=ADVANCED_FACE('',(#46),#26,.T.);
#391=ADVANCED_FACE('',(#47),#27,.T.);
#392=ADVANCED_FACE('',(#48),#28,.T.);
#393=ADVANCED_FACE('',(#49),#29,.T.);
#394=ADVANCED_FACE('',(#50),#30,.T.);
#395=ADVANCED_FACE('',(#51),#31,.T.);
#396=ADVANCED_FACE('',(#52),#32,.T.);
#397=CLOSED_SHELL('',(#377,#378,#379,#380,#381,#382,#383,#384,#385,#386,
#387,#388,#389,#390,#391,#392,#393,#394,#395,#396));
#398=DERIVED_UNIT_ELEMENT(#400,1.);
#399=DERIVED_UNIT_ELEMENT(#651,-3.);
#400=(
MASS_UNIT()
NAMED_UNIT(*)
SI_UNIT(.KILO.,.GRAM.)
);
#401=DERIVED_UNIT((#398,#399));
#402=MEASURE_REPRESENTATION_ITEM('density measure',
POSITIVE_RATIO_MEASURE(7850.),#401);
#403=PROPERTY_DEFINITION_REPRESENTATION(#408,#405);
#404=PROPERTY_DEFINITION_REPRESENTATION(#409,#406);
#405=REPRESENTATION('material name',(#407),#648);
#406=REPRESENTATION('density',(#402),#648);
#407=DESCRIPTIVE_REPRESENTATION_ITEM('Steel','Steel');
#408=PROPERTY_DEFINITION('material property','material name',#658);
#409=PROPERTY_DEFINITION('material property','density of part',#658);
#410=AXIS2_PLACEMENT_3D('',#535,#435,#436);
#411=AXIS2_PLACEMENT_3D('',#536,#437,#438);
#412=AXIS2_PLACEMENT_3D('',#539,#439,#440);
#413=AXIS2_PLACEMENT_3D('',#543,#442,#443);
#414=AXIS2_PLACEMENT_3D('',#545,#445,#446);
#415=AXIS2_PLACEMENT_3D('',#551,#450,#451);
#416=AXIS2_PLACEMENT_3D('',#555,#453,#454);
#417=AXIS2_PLACEMENT_3D('',#583,#469,#470);
#418=AXIS2_PLACEMENT_3D('',#586,#471,#472);
#419=AXIS2_PLACEMENT_3D('',#589,#475,#476);
#420=AXIS2_PLACEMENT_3D('',#593,#479,#480);
#421=AXIS2_PLACEMENT_3D('',#597,#483,#484);
#422=AXIS2_PLACEMENT_3D('',#599,#486,#487);
#423=AXIS2_PLACEMENT_3D('',#603,#490,#491);
#424=AXIS2_PLACEMENT_3D('',#607,#494,#495);
#425=AXIS2_PLACEMENT_3D('',#611,#498,#499);
#426=AXIS2_PLACEMENT_3D('',#615,#502,#503);
#427=AXIS2_PLACEMENT_3D('',#619,#506,#507);
#428=AXIS2_PLACEMENT_3D('',#623,#510,#511);
#429=AXIS2_PLACEMENT_3D('',#627,#514,#515);
#430=AXIS2_PLACEMENT_3D('',#631,#518,#519);
#431=AXIS2_PLACEMENT_3D('',#635,#522,#523);
#432=AXIS2_PLACEMENT_3D('',#639,#526,#527);
#433=AXIS2_PLACEMENT_3D('',#643,#530,#531);
#434=AXIS2_PLACEMENT_3D('',#645,#533,#534);
#435=DIRECTION('axis',(0.,0.,1.));
#436=DIRECTION('refdir',(1.,0.,0.));
#437=DIRECTION('center_axis',(0.,0.,1.));
#438=DIRECTION('ref_axis',(0.707106781186547,-0.707106781186548,0.));
#439=DIRECTION('center_axis',(0.,0.,-1.));
#440=DIRECTION('ref_axis',(0.707106781186547,-0.707106781186548,0.));
#441=DIRECTION('',(0.,0.,-1.));
#442=DIRECTION('center_axis',(0.,0.,1.));
#443=DIRECTION('ref_axis',(0.707106781186547,-0.707106781186548,0.));
#444=DIRECTION('',(0.,0.,1.));
#445=DIRECTION('center_axis',(1.,0.,0.));
#446=DIRECTION('ref_axis',(0.,1.,0.));
#447=DIRECTION('',(0.,-1.,0.));
#448=DIRECTION('',(0.,0.,1.));
#449=DIRECTION('',(0.,1.,0.));
#450=DIRECTION('center_axis',(0.,0.,1.));
#451=DIRECTION('ref_axis',(1.,0.,0.));
#452=DIRECTION('',(-1.,0.,0.));
#453=DIRECTION('center_axis',(0.,0.,1.));
#454=DIRECTION('ref_axis',(-0.707106781186548,-0.707106781186547,0.));
#455=DIRECTION('',(0.,1.,0.));
#456=DIRECTION('',(1.,-6.16297582203915E-33,0.));
#457=DIRECTION('',(0.,1.,0.));
#458=DIRECTION('',(-1.,0.,0.));
#459=DIRECTION('',(0.,-1.,0.));
#460=DIRECTION('',(1.,-6.16297582203915E-33,0.));
#461=DIRECTION('',(0.,1.,0.));
#462=DIRECTION('',(-1.,0.,0.));
#463=DIRECTION('',(0.,-1.,0.));
#464=DIRECTION('',(1.,-6.16297582203915E-33,0.));
#465=DIRECTION('',(0.,1.,0.));
#466=DIRECTION('',(-1.,-1.77635683940025E-15,0.));
#467=DIRECTION('',(0.,-1.,0.));
#468=DIRECTION('',(1.,-6.16297582203915E-33,0.));
#469=DIRECTION('center_axis',(0.,0.,1.));
#470=DIRECTION('ref_axis',(-0.707106781186548,-0.707106781186547,0.));
#471=DIRECTION('center_axis',(0.,0.,-1.));
#472=DIRECTION('ref_axis',(-0.707106781186548,-0.707106781186547,0.));
#473=DIRECTION('',(0.,0.,-1.));
#474=DIRECTION('',(0.,0.,1.));
#475=DIRECTION('center_axis',(-1.,0.,0.));
#476=DIRECTION('ref_axis',(0.,-1.,0.));
#477=DIRECTION('',(0.,-1.,0.));
#478=DIRECTION('',(0.,0.,1.));
#479=DIRECTION('center_axis',(6.16297582203915E-33,1.,0.));
#480=DIRECTION('ref_axis',(-1.,6.16297582203915E-33,0.));
#481=DIRECTION('',(0.,0.,1.));
#482=DIRECTION('',(-1.,6.16297582203915E-33,0.));
#483=DIRECTION('center_axis',(0.,-1.,0.));
#484=DIRECTION('ref_axis',(1.,0.,0.));
#485=DIRECTION('',(1.,0.,0.));
#486=DIRECTION('center_axis',(6.16297582203915E-33,1.,0.));
#487=DIRECTION('ref_axis',(-1.,6.16297582203915E-33,0.));
#488=DIRECTION('',(-1.,6.16297582203915E-33,0.));
#489=DIRECTION('',(0.,0.,1.));
#490=DIRECTION('center_axis',(1.,0.,0.));
#491=DIRECTION('ref_axis',(0.,1.,0.));
#492=DIRECTION('',(0.,1.,0.));
#493=DIRECTION('',(0.,0.,1.));
#494=DIRECTION('center_axis',(0.,1.,0.));
#495=DIRECTION('ref_axis',(-1.,0.,0.));
#496=DIRECTION('',(-1.,0.,0.));
#497=DIRECTION('',(0.,0.,1.));
#498=DIRECTION('center_axis',(-1.,0.,0.));
#499=DIRECTION('ref_axis',(0.,-1.,0.));
#500=DIRECTION('',(0.,-1.,0.));
#501=DIRECTION('',(0.,0.,1.));
#502=DIRECTION('center_axis',(6.16297582203915E-33,1.,0.));
#503=DIRECTION('ref_axis',(-1.,6.16297582203915E-33,0.));
#504=DIRECTION('',(-1.,6.16297582203915E-33,0.));
#505=DIRECTION('',(0.,0.,1.));
#506=DIRECTION('center_axis',(1.,0.,0.));
#507=DIRECTION('ref_axis',(0.,1.,0.));
#508=DIRECTION('',(0.,1.,0.));
#509=DIRECTION('',(0.,0.,1.));
#510=DIRECTION('center_axis',(0.,1.,0.));
#511=DIRECTION('ref_axis',(-1.,0.,0.));
#512=DIRECTION('',(-1.,0.,0.));
#513=DIRECTION('',(0.,0.,1.));
#514=DIRECTION('center_axis',(-1.,0.,0.));
#515=DIRECTION('ref_axis',(0.,-1.,0.));
#516=DIRECTION('',(0.,-1.,0.));
#517=DIRECTION('',(0.,0.,1.));
#518=DIRECTION('center_axis',(6.16297582203915E-33,1.,0.));
#519=DIRECTION('ref_axis',(-1.,6.16297582203915E-33,0.));
#520=DIRECTION('',(-1.,6.16297582203915E-33,0.));
#521=DIRECTION('',(0.,0.,1.));
#522=DIRECTION('center_axis',(1.,0.,0.));
#523=DIRECTION('ref_axis',(0.,1.,0.));
#524=DIRECTION('',(0.,1.,0.));
#525=DIRECTION('',(0.,0.,1.));
#526=DIRECTION('center_axis',(-1.77635683940025E-15,1.,0.));
#527=DIRECTION('ref_axis',(-1.,-1.77635683940025E-15,0.));
#528=DIRECTION('',(-1.,-1.77635683940025E-15,0.));
#529=DIRECTION('',(0.,0.,1.));
#530=DIRECTION('center_axis',(-1.,0.,0.));
#531=DIRECTION('ref_axis',(0.,-1.,0.));
#532=DIRECTION('',(0.,-1.,0.));
#533=DIRECTION('center_axis',(0.,0.,1.));
#534=DIRECTION('ref_axis',(1.,0.,0.));
#535=CARTESIAN_POINT('',(0.,0.,0.));
#536=CARTESIAN_POINT('Origin',(36.,-21.,0.));
#537=CARTESIAN_POINT('',(40.,-21.,4.));
#538=CARTESIAN_POINT('',(36.,-25.,4.));
#539=CARTESIAN_POINT('Origin',(36.,-21.,4.));
#540=CARTESIAN_POINT('',(36.,-25.,0.));
#541=CARTESIAN_POINT('',(36.,-25.,0.));
#542=CARTESIAN_POINT('',(40.,-21.,0.));
#543=CARTESIAN_POINT('Origin',(36.,-21.,0.));
#544=CARTESIAN_POINT('',(40.,-21.,0.));
#545=CARTESIAN_POINT('Origin',(40.,-25.,0.));
#546=CARTESIAN_POINT('',(40.,-2.46519032881566E-31,0.));
#547=CARTESIAN_POINT('',(40.,-2.46519032881566E-31,0.));
#548=CARTESIAN_POINT('',(40.,-2.46519032881566E-31,4.));
#549=CARTESIAN_POINT('',(40.,-2.46519032881566E-31,0.));
#550=CARTESIAN_POINT('',(40.,-2.46519032881566E-31,4.));
#551=CARTESIAN_POINT('Origin',(20.,-12.5,0.));
#552=CARTESIAN_POINT('',(4.,-25.,0.));
#553=CARTESIAN_POINT('',(40.,-25.,0.));
#554=CARTESIAN_POINT('',(0.,-21.,0.));
#555=CARTESIAN_POINT('Origin',(4.,-21.,0.));
#556=CARTESIAN_POINT('',(0.,0.,0.));
#557=CARTESIAN_POINT('',(0.,-25.,0.));
#558=CARTESIAN_POINT('',(7.1875,0.,0.));
#559=CARTESIAN_POINT('',(0.,0.,0.));
#560=CARTESIAN_POINT('',(7.1875,-12.5,0.));
#561=CARTESIAN_POINT('',(7.1875,-12.5,0.));
#562=CARTESIAN_POINT('',(10.9375,-12.5,0.));
#563=CARTESIAN_POINT('',(10.9375,-12.5,0.));
#564=CARTESIAN_POINT('',(10.9375,-2.44824214530505E-31,0.));
#565=CARTESIAN_POINT('',(10.9375,-2.44824214530505E-31,0.));
#566=CARTESIAN_POINT('',(18.125,0.,0.));
#567=CARTESIAN_POINT('',(0.,0.,0.));
#568=CARTESIAN_POINT('',(18.125,-12.5,0.));
#569=CARTESIAN_POINT('',(18.125,-12.5,0.));
#570=CARTESIAN_POINT('',(21.875,-12.5,0.));
#571=CARTESIAN_POINT('',(21.875,-12.5,0.));
#572=CARTESIAN_POINT('',(21.875,4.9555962951309E-31,0.));
#573=CARTESIAN_POINT('',(21.875,4.9555962951309E-31,0.));
#574=CARTESIAN_POINT('',(29.0625,0.,0.));
#575=CARTESIAN_POINT('',(0.,0.,0.));
#576=CARTESIAN_POINT('',(29.0625,-12.5,0.));
#577=CARTESIAN_POINT('',(29.0625,-12.5,0.));
#578=CARTESIAN_POINT('',(32.8125,-12.5,0.));
#579=CARTESIAN_POINT('',(32.8125,-12.5,0.));
#580=CARTESIAN_POINT('',(32.8125,-4.96336348217349E-31,0.));
#581=CARTESIAN_POINT('',(32.8125,-4.96336348217349E-31,0.));
#582=CARTESIAN_POINT('',(0.,0.,0.));
#583=CARTESIAN_POINT('Origin',(4.,-21.,0.));
#584=CARTESIAN_POINT('',(4.,-25.,4.));
#585=CARTESIAN_POINT('',(0.,-21.,4.));
#586=CARTESIAN_POINT('Origin',(4.,-21.,4.));
#587=CARTESIAN_POINT('',(0.,-21.,0.));
#588=CARTESIAN_POINT('',(4.,-25.,0.));
#589=CARTESIAN_POINT('Origin',(0.,0.,0.));
#590=CARTESIAN_POINT('',(0.,0.,4.));
#591=CARTESIAN_POINT('',(0.,-25.,4.));
#592=CARTESIAN_POINT('',(0.,0.,0.));
#593=CARTESIAN_POINT('Origin',(40.,-2.46519032881566E-31,0.));
#594=CARTESIAN_POINT('',(32.8125,-4.96336348217349E-31,4.));
#595=CARTESIAN_POINT('',(32.8125,-4.96336348217349E-31,0.));
#596=CARTESIAN_POINT('',(0.,0.,4.));
#597=CARTESIAN_POINT('Origin',(0.,-25.,0.));
#598=CARTESIAN_POINT('',(40.,-25.,4.));
#599=CARTESIAN_POINT('Origin',(7.1875,-4.42963887209064E-32,0.));
#600=CARTESIAN_POINT('',(7.1875,0.,4.));
#601=CARTESIAN_POINT('',(0.,0.,4.));
#602=CARTESIAN_POINT('',(7.1875,0.,0.));
#603=CARTESIAN_POINT('Origin',(7.1875,-12.5,0.));
#604=CARTESIAN_POINT('',(7.1875,-12.5,4.));
#605=CARTESIAN_POINT('',(7.1875,-12.5,4.));
#606=CARTESIAN_POINT('',(7.1875,-12.5,0.));
#607=CARTESIAN_POINT('Origin',(10.9375,-12.5,0.));
#608=CARTESIAN_POINT('',(10.9375,-12.5,4.));
#609=CARTESIAN_POINT('',(10.9375,-12.5,4.));
#610=CARTESIAN_POINT('',(10.9375,-12.5,0.));
#611=CARTESIAN_POINT('Origin',(10.9375,-2.44824214530505E-31,0.));
#612=CARTESIAN_POINT('',(10.9375,-2.44824214530505E-31,4.));
#613=CARTESIAN_POINT('',(10.9375,-2.44824214530505E-31,4.));
#614=CARTESIAN_POINT('',(10.9375,-2.44824214530505E-31,0.));
#615=CARTESIAN_POINT('Origin',(18.125,-1.1170393677446E-31,0.));
#616=CARTESIAN_POINT('',(18.125,0.,4.));
#617=CARTESIAN_POINT('',(0.,0.,4.));
#618=CARTESIAN_POINT('',(18.125,0.,0.));
#619=CARTESIAN_POINT('Origin',(18.125,-12.5,0.));
#620=CARTESIAN_POINT('',(18.125,-12.5,4.));
#621=CARTESIAN_POINT('',(18.125,-12.5,4.));
#622=CARTESIAN_POINT('',(18.125,-12.5,0.));
#623=CARTESIAN_POINT('Origin',(21.875,-12.5,0.));
#624=CARTESIAN_POINT('',(21.875,-12.5,4.));
#625=CARTESIAN_POINT('',(21.875,-12.5,4.));
#626=CARTESIAN_POINT('',(21.875,-12.5,0.));
#627=CARTESIAN_POINT('Origin',(21.875,4.9555962951309E-31,0.));
#628=CARTESIAN_POINT('',(21.875,4.9555962951309E-31,4.));
#629=CARTESIAN_POINT('',(21.875,4.9555962951309E-31,4.));
#630=CARTESIAN_POINT('',(21.875,4.9555962951309E-31,0.));
#631=CARTESIAN_POINT('Origin',(29.0625,-1.79111484828013E-31,0.));
#632=CARTESIAN_POINT('',(29.0625,0.,4.));
#633=CARTESIAN_POINT('',(0.,0.,4.));
#634=CARTESIAN_POINT('',(29.0625,0.,0.));
#635=CARTESIAN_POINT('Origin',(29.0625,-12.5,0.));
#636=CARTESIAN_POINT('',(29.0625,-12.5,4.));
#637=CARTESIAN_POINT('',(29.0625,-12.5,4.));
#638=CARTESIAN_POINT('',(29.0625,-12.5,0.));
#639=CARTESIAN_POINT('Origin',(32.8125,-12.5,0.));
#640=CARTESIAN_POINT('',(32.8125,-12.5,4.));
#641=CARTESIAN_POINT('',(32.8125,-12.5,4.));
#642=CARTESIAN_POINT('',(32.8125,-12.5,0.));
#643=CARTESIAN_POINT('Origin',(32.8125,-4.96336348217349E-31,0.));
#644=CARTESIAN_POINT('',(32.8125,-4.96336348217349E-31,4.));
#645=CARTESIAN_POINT('Origin',(20.,-12.5,4.));
#646=UNCERTAINTY_MEASURE_WITH_UNIT(LENGTH_MEASURE(0.01),#650,
'DISTANCE_ACCURACY_VALUE',
'Maximum model space distance between geometric entities at asserted c
onnectivities');
#647=UNCERTAINTY_MEASURE_WITH_UNIT(LENGTH_MEASURE(0.01),#650,
'DISTANCE_ACCURACY_VALUE',
'Maximum model space distance between geometric entities at asserted c
onnectivities');
#648=(
GEOMETRIC_REPRESENTATION_CONTEXT(3)
GLOBAL_UNCERTAINTY_ASSIGNED_CONTEXT((#646))
GLOBAL_UNIT_ASSIGNED_CONTEXT((#650,#652,#653))
REPRESENTATION_CONTEXT('','3D')
);
#649=(
GEOMETRIC_REPRESENTATION_CONTEXT(3)
GLOBAL_UNCERTAINTY_ASSIGNED_CONTEXT((#647))
GLOBAL_UNIT_ASSIGNED_CONTEXT((#650,#652,#653))
REPRESENTATION_CONTEXT('','3D')
);
#650=(
LENGTH_UNIT()
NAMED_UNIT(*)
SI_UNIT(.MILLI.,.METRE.)
);
#651=(
LENGTH_UNIT()
NAMED_UNIT(*)
SI_UNIT($,.METRE.)
);
#652=(
NAMED_UNIT(*)
PLANE_ANGLE_UNIT()
SI_UNIT($,.RADIAN.)
);
#653=(
NAMED_UNIT(*)
SI_UNIT($,.STERADIAN.)
SOLID_ANGLE_UNIT()
);
#654=SHAPE_DEFINITION_REPRESENTATION(#655,#656);
#655=PRODUCT_DEFINITION_SHAPE('',$,#658);
#656=SHAPE_REPRESENTATION('',(#410),#648);
#657=PRODUCT_DEFINITION_CONTEXT('part definition',#662,'design');
#658=PRODUCT_DEFINITION('joint_press_fit','joint_press_fit v2',#659,#657);
#659=PRODUCT_DEFINITION_FORMATION('',$,#664);
#660=PRODUCT_RELATED_PRODUCT_CATEGORY('joint_press_fit v2',
'joint_press_fit v2',(#664));
#661=APPLICATION_PROTOCOL_DEFINITION('international standard',
'automotive_design',2009,#662);
#662=APPLICATION_CONTEXT(
'Core Data for Automotive Mechanical Design Process');
#663=PRODUCT_CONTEXT('part definition',#662,'mechanical');
#664=PRODUCT('joint_press_fit','joint_press_fit v2',$,(#663));
#665=PRESENTATION_STYLE_ASSIGNMENT((#666));
#666=SURFACE_STYLE_USAGE(.BOTH.,#667);
#667=SURFACE_SIDE_STYLE('',(#668));
#668=SURFACE_STYLE_FILL_AREA(#669);
#669=FILL_AREA_STYLE('Steel - Satin',(#670));
#670=FILL_AREA_STYLE_COLOUR('Steel - Satin',#671);
#671=COLOUR_RGB('Steel - Satin',0.627450980392157,0.627450980392157,0.627450980392157);
ENDSEC;
END-ISO-10303-21;
